Acordes de Guitarra » B »Belanova » One, two, three, go! (Tab)

One, two, three, go!
Belanova

Letras, Notas, Punteos, Tablaturas y Acordes de Guitarra (Tabs & Chords)

  • Tablatura
            E A D G B E
    A     = 5 7 7 6 5 5
    G     = 3 5 5 4 3 3
    B5    = x 2 4 4 x x
    D5    = x 5 7 7 x x
    G5    = 3 5 5 x x x
    
    Nada mas yyy One, two, three, go!
    
    
    Intro y Riff 1 :
    
    e -----------------------------------
    B -----------------------------------
    G -----------------------------------
    D -----------------------------------
    A -2-2-2-2-5-5-5-5---------5-5-5-5---
    E -----------------3-3-3-3----------- x2
    
    
    
  • Tab p/Bajo
    Hola qué tal, espero que les guste y sirva esta tablatura.
    Utilicé un formato parecido a las tabs de guitarra, de ese modo se pueden
    basar en las dos.
    
    Intro
    G|-----------------------------------|
    D|-----------------------------------|
    A|-2-2-2-2-5-5-5-5---------5-5-5-5---| x2
    E|-----------------3-3-3-3-----------|
    
    Sólo dime                  G|-------------------------------------|
    Todo lo que sientes        D|-------------------------------------|
    Quiero que lo intentes     A|-2-2-2-2-5-5-5-5---------5-5-5-5-----| x2
    One, two, three, go!       E|-----------------3-3-3-3-------------|
    
    
    No me mientas              G|-------------------------------------|
    Niño, sé sincero           D|-------------------------------------|
    Sabes lo que quiero        A|-2-2-2-2-5-5-5-5---------5-5-5-5-----| x2
    One, two, three, go!       E|-----------------3-3-3-3-------------|
    
    
    Si cierras los ojos        G|-------------------------------------|
                               D|--------------------------
  • Tab p/Bajo
                                1, 2, ,3, go!
    NOTA:
    
    Espero y te ayude en algo esta tab.
    
    Si necesitas una tab en especial, escríbeme o visita...
    
    http://www.myspace.com/alejandrolauyola
    
    G||-------|-------|--------------------------|
    D||-------|-------|--------------------------|
    A||-------|-------|--2--2--2--2--5--5--5--5--|
    E||-------|-------|--------------------------|
    
    --------------------------|--------------------------|
    --------------------------|--------------------------|
    --------------5--5--5--5--|--2--2--2--2--5--5--5--5--|
    --3--3--3--3--------------|--------------------------|
    
    
    --------------------------|--------------------------|
    --------------------------|--------------------------|
    --------------5--5--5--5--|--2--2--2--2--5--5--5--5--|
    --3--3--3--3--------------|--------------------------|
    
    
    --------------------------|--------------------------|
    --------------------------|--------------------------|
    --------------5--5--5--5--|--2--2--2--2--5--5--5--5--|
    --3--3--3--3-----
  • +
    ¡Colabora con nosotros!
    Envíanos tu versión de esta canción

Letra de One, two, three, go!
Nada mas yyy One, two, three, go!
Verso 1 :
[Riff 1.....
Sólo dime
Todo lo que sientes
Quiero que lo intentes
One, two, three, go!
[Riff 2... Riff 2 :
One, two, three, go!
Verso 2 :
[Riff 3... Riff 3 :
...Riff 1]
Precoro :
Sé que estás ahí
Háblame de ti quiero saberlo.
[Riff 4... Riff 4 :
Sabes bien que sólo te quiero a ti
Sólo te quiero a ti.
...Riff 4]
Teclado :
Verso 3 :
[Riff 5... Riff 5 :
No lo entiendo x x x x
Sabes lo que quiero
One, two, three, go!
...Riff 5]
Verso 4 :
[Riff 3... Riff 3 :
Precoro :
Sé que estás ahí
Lo puedo sentir
Háblame de ti quiero saberlo.
[Riff 4... Riff 4 :
Sabes bien que sólo te quiero a ti.
...Riff 4]
[Riff 4... Riff 4 :
Sabes bien que sólo te quiero a ti
te quiero a ti
te quiero a ti.
FIN
Cualquier cosa a mi mail jc_xj@hotmail.com



© LaCuerda.net · Aviso Legal · Privacidad