Acordes de Guitarra » B »BBS Paranóicos » Algo no anda (Tab)

Algo no anda
BBS Paranóicos

Letras, Acordes y Tabs para Guitarra, Bajo y Ukulele

  • |----------------------------------------1
    |----------------------------------------|
    |----------------------------------------|
    |-3-3-3-2---0-2-3-2---0-2-0--------------|
    |---------------------------3---2-3-5-3--|
    |----------------------------------------|
    
    |----------------------------------------1
    |----------------------------------------|
    |----------------------------------------|
    |-3-3-3-2---0-2-3-2---0-2-0--------------|
    |---------------------------3---PM rapido|
    |------------------------------3-3-3-3-3-|
    
    
    Algo no anda bien...
    
    A      C        G       E
    Tu no eres quien dice ser
    A      C        G       E
    
  • +
    ¡Colabora con nosotros!
    Envíanos tu versión de esta canción

Letra de Algo no anda
Algo no anda bien...
Tu no eres quien dice ser
no sientes lo que dices
algo anda mal lo sabes bien
no lo quieres aceptar
no se trata de fingir
nadie te va a descubrir
algo anda mal y lo sabes bien
no lo quieres aceptar
Tiene q haber una forma de actuar
q no implique sangrar q no sea perder
tiempo perdido en un bar
tratando de beber el valor
vomitando dolor vomitando dolor
Algo no anda bien...
Tu no eres quien dice ser
no sientes lo que dices
algo anda mal lo sabes bien
no lo quieres aceptar




[Algo no anda chords][Algo no anda cifra]
© LaCuerda.net · aviso legal · privacidad · es · en · pt · contacto
DINAMICO