Tablatura para Guitarra de La Base: Muchacha Sola
Conexión · Inscripción
Letras y Acordes
Pantalla Completa
Imprimir
Versión Texto
Añadir Favorito
Otras Versiones

Mostrar Diagramas
Desfile Automático
Manipular Acordes
Formato del Texto


Muchacha Sola(TAB)

La Base

calidad:
base0013
AUTOR: La Base  corregir
ALBUM: Parulo (2003)
Enviado por Guido
 Bueno, aca tienen Muchacha Sola en la versión en vivo 
para mi está mejor xq tiene el riff q incluyo al
principio que saque perdonen
que no puse las pausas pero estan bien 
los tonos (esta en Re). Lo d las tecnicas que incluyo son b=bend(x) 
(estirar),donde la x hasta el tono que se quiere lograr), h=hammer on 
(hacer otro sonido sin tocar de vuelta con la derecha), p=pull off 
(lo mismo pero descendente en vez d ascendente) /=slide(deslizar)

Si quieren imitar al piano básicamente es esto:

e|---------------
B|----5----------
G|--7-----5------
D|------7--------
A|---------------
E|---------------

Arriba del piano va este riff con la guitarra:

e|--------------------------------------------------8-------------
B|-----------------------------------------8---8/10---10-10-8-----
G|--5b(7)h7---5h7---7/9-10-9---9-7-5---5-9--------------------8h9-
D|-----------------------------------5-------7--------------------
A|----------------------------------------------------------------
E|----------------------------------------------------------------

e|------------------------------------8-10-12b(14)-12----------
B|-------------------10b(11)-8-----10-----------------12h13-12-
G|7-7-7-5-7-7-9-9/10-----------9-7-----------------------------
D|-------------------------------------------------------------
A|-------------------------------------------------------------
E|-------------------------------------------------------------

       Por Guido De Vita, x preguntas gdkpo_lasalle@hotmail.com
Este fichero es trabajo propio de su transcriptor y representa su interpretación personal de la canción. El material contenido en esta página es
para exclusivo uso privado, por lo que se prohibe su reproducción o retransmisión, así como su uso para fines comerciales.

© LaCuerda.net · Aviso Legal · Privacidad