Acordes de Guitarra » B »Barrio Pobre » Johnny B. Goode (Tab)

Johnny B. Goode
Barrio Pobre

Letras, Acordes y Tabs para Guitarra, Bajo y Ukulele

  • e----------5/6-6-6-5/-6-6-6-6-------------------------------
    B-------6--5/6-6-6-5/-6-6-6-6-9-8-6-6-----------------------
    G---6h7-----------------------------6h7---------------------
    D-8-------------------------------------8-6--8-8-8-8-8------
    A--------------------------------------------8-8-8-8-8------
    E-----------------------------------------------------------
    
    e-------------------------------6-------------------------------------------
    B-6-----6----------------6------6------6------6-------6------6------6-------
    G-6-7-8-6h7----8b9--8b10---8b10---8b10---8b10----8b10---8b10---8b10---8b10--
    D------------8--------------------------------------------------------------
    A---------------------------------------------------------------------------
    E---------------------------------------------------------------------------
    
    e---------------------6---9-8-6----------------------
    B------6------6---------6-------9-8-6-6---8---6------
    G-8b10---8b10---8b10------------------6h7-8---6h7-7--
    D-------------------------------------------8-----8--
    A----------------------------------------------------
    E----------------------------------------------------
    
  • eI----------5/6-6-6-5/-6-6-6-6-------------------------------I
    BI-------6--5/6-6-6-5/-6-6-6-6-9-8-6-6-----------------------I
    GI---6h7-----------------------------6h7---------------------I
    DI-8-------------------------------------8-6--8-8-8-8-8------I
    AI--------------------------------------------8-8-8-8-8------I
    EI-----------------------------------------------------------I
    
    eI-------------------------------6-------------------------------------------I
    BI-6-----6----------------6------6------6------6-------6------6------6-------I
    GI-6-7-8-6h7----8b9--8b10---8b10---8b10---8b10----8b10---8b10---8b10---8b10--I
    DI------------8--------------------------------------------------------------I
    AI---------------------------------------------------------------------------I
    EI---------------------------------------------------------------------------I
    
    eI---------------------6---9-8-6----------------------I
    BI------6------6---------6-------9-8-6-6---8---6------I
    GI-8b10---8b10---8b10------------------6h7-8---6h7-7--I
    DI-------------------------------------------8-----8--I
    AI----------------------------------------------------I
    EI----------------------------------------------------I
    
  • +
    ¡Colabora con nosotros!
    Envíanos tu versión de esta canción

Letra de Johnny B. Goode
volando a la cd un dia me encontre
a una nena sabrosa y de volon me apunte
sus piernas se movian al ritmo de este blues
le dije entre la banda yo soy johnny b goode
ella medio nerviosa no sabia que hacer
go go
(riff)
go johnny go go
go johnny go go go
go johnny go go
go johnny go go go
johnny b goode
riff
B-/9--9--9--11~\--
le dije oye preciosa te puedo acompañar
el cielo y las estrellas yo le quise bajar
todo sacado de onda en un momento quede
luego apañar la tira de repente escuche
se echo acorrer la banda no me podia mover
mientras que la morra se quejaba de mi
go go
(riff)
go johnny go go
go johnny go go go
go johnny go go
go johnny go go go
johnny b goode
go go
(riff)
go johnny go go
go johnny go go go
go johnny go go
go johnny go go go
johnny b goode
un dia en una tocada la volvi a encontrar
le dije que onda morra recuerda has incapie
la morra ya prendida se puso a chupar
era bien reventada y comenzo a aflojar
saliendo del rock nos fuimos a otro lugar
nos fuimos al motel a pasarla rebien
go go
(riff)
go johnny go go
go johnny go go go
go johnny go go
go johnny go go go
johnny b goode
go go
(riff)
go johnny go go
go johnny go go go
go johnny go go
go johnny go go go
johnny b goode
eso es todo banda espero k les guste, y suerte con la rolita!!!




[Johnny B. Goode chords][Johnny B. Goode cifra]
© LaCuerda.net · aviso legal · privacidad · es · en · pt · contacto