Acordes de Guitarra » B »Barricada » Como yo a tí (Tab)

Como yo a tí
Barricada

Letras, Acordes y Tabs para Guitarra, Bajo y Ukulele

  •  G            A              A#                  C
    Tengo la sensación de que se me escapa sin piedad el último tren
     A#              C
    y me ha cogido sentado de nuevo en la vía...
    
                D|--12---10-12--10-12-10-12--10--12---10-12-10------------|
                A|--10----8-10---8-10--8-10---8--10----8-10--8------------|
    
     G                A                  A#            C
    Quizá su silbido voló muy fino o el humo se volvió invisible
     A#              C
    y pasó por mis narices sin olerlo...
    
                D|--12---10-12--10-12-10-12--10--12---10-12-10------------|
                A|--10----8-10---8-10--8-10---8--10----8-10--8------------|
    
     G                         A                 A#                C
    Y siento el ruido de la locomotora como un montón de chatarra
     A#                C
    le doy un corte de mangas mientras se aleja...
    
  • E|--------------------------------------------------------|
    G|--------------------------------------------------------|
    B|--------------------------------------------------------|
    D|--------------------------------------------------------|
    A|--10---8-10--8-10-8-10--8--10---------------------------|
    E|--------------------------------------------------------|
    
    (para k se parezca más el sonido bajad el middle, esto se repite
    unas cuantas veces y después pasan a hacerlo en quintas)
    
    E|--------------------------------------------------------|
    B|--------------------------------------------------------|
    G|--------------------------------------------------------|
    D|--12---10-12--10-12-10-12--10--12-----------------------|
    A|--10----8-10---8-10--8-10---8--10-----------------------|
    E|--------------------------------------------------------|
    
    se va repitiendo y
    
    D|--10-10--10-10--10-10---10-10----(10-10-10)-------------|
    
  • +
    ¡Colabora con nosotros!
    Envíanos tu versión de esta canción

Letra de Como yo a tí
Tengo la sensación de que se me escapa sin piedad el último tren
y me ha cogido sentado de nuevo en la vía...
Quizá su silbido voló muy fino o el humo se volvió invisible
y pasó por mis narices sin olerlo...
Y siento el ruido de la locomotora como un montón de chatarra
le doy un corte de mangas mientras se aleja...
Estribillo:
Los raíles desgastados,
tantos actos de cordura,
los colmillos, amarrados
como yo a tí.
(esto último se hace 2 veces)
Intenté buscar sorpresas en el tunel y ofrecerte así el mejor truco
pero voy palpando a los que han llegado antes...
Y mientras doy vueltas caigo en la cuenta de que van metiendo a todos
en éste negro pozo que no tiene fondo...
Los raíles desgastados,
tantos actos de cordura,
los colmillos, amarrados
como yo a tí.
Los raíles desgastados,
tantos actos de cordura,
los colmillos, amarrados
como yo a tí.
Pasad a tocar esto en P.M.
..................
··················
Es la rutina, quema la rutina.
Es la rutina, quema cada dia.
(repetidlo unas cuantas veces acompañandolo de esos acordes)
FIN
sion_311@hotmail.com




[Como yo a tí chords][Como yo a tí cifra]
© LaCuerda.net · aviso legal · privacidad · es · en · pt · contacto