Acordes de Guitarra » B »Bani Muñoz » Ayer (Tab)
  • Intro: Dm-Am-C-G
    
      Dm            Am
    Nací, crecí, corrí, viví
           C          G
    Todo eso y más pasó
         Dm           Am
    Son tantos los recuerdos
           C               G
    Las historias de este amor
        Dm            Am
    Podría tratar de revivir
         C          G
    Mas eso es desistir
    
    F#m    C#m    B         A
    No necesito vivir del ayer
    F#m        C#m       B         A
    No es suficiente con lo que probé
    
    
  • Solo: G#m-D#m-F#m-C#m
    
    e----------------------------------------------------------
    B-----7-7---7-7---7-7---7-7---7----------------------------
    G-6s8-----8-----8-----8-----8---8-8-9-9-9-8-8-8-6---6-8-6v-
    D-------------------------------------------------9--------
    A----------------------------------------------------------
    E----------------------------------------------------------
    
    e----------------------------------------------------------
    B----------------------------------------------------------
    G-----6h4---4----------------------4-4---4---4-----------6-
    D-6s4-----6-4--6-4---------4s6-6-6-----6-------6-6-4-4-----
    A-----------------6-4---4------------------------------6---
    E---------------------7------------------------------------
    
    e-----------------------------------------------------
    B-----------------7---7-7-7s9-9---7-7-----------------
    G-----4---4-----8---8-----------8-------6-8-6---6-8---
    D-4h6-4-6-4-6-9-----------------------9-------9-----6-
    
  • +
    ¡Colabora con nosotros!
    Envíanos tu versión de esta canción

Letra de Ayer
Nací, crecí, corrí, viví
Todo eso y más pasó
Son tantos los recuerdos
Las historias de este amor
Podría tratar de revivir
Mas eso es desistir
No necesito vivir del ayer
No es suficiente con lo que probé
Oré, busqué, sufrí, clamé
Siempre estuviste allí
Momentos tan gloriosos que
Sellaste el corazón
Podría tratar de revivir
No voy a desistir
No necesito vivir del ayer
No es suficiente
Yo quiero
Poder correr hacia tus pies
No importa ya lo que fue ayer
Hoy quiero encontrarte otra vez
Poder correr hacia tus pies
No importa ya lo que fue ayer
Contigo encontrarme otra *vez*
Nota; el tab de el solo de guitarra esta en:
http://lacuerda.net/tabs/b/bani_munioz/ayer-2.shtml#top




[Ayer chords][Ayer cifra]
© LaCuerda.net · aviso legal · privacidad · es · en · pt · contacto
DINAMICO