Acordes de Guitarra » B »Bani Muñoz » Te Adoro (Tab)

Te Adoro
Bani Muñoz

Letras, Acordes y Tabs para Guitarra, Bajo y Ukulele

  • Intro: Bm   D     A     G
    
    
    Bm                 D                     A               G
    Tantos motivos hay/ tantas razones sobran/ para cantarte
    Bm                 D                    A                    G
    Mas yo te canto hoy/ Porque Tu eres Dios/ Vivo para exaltarte
    
            Bm                    D
    Te a - doro/ Porque Tu eres bueno/
                  A                       G
    Porque eres eterno/ Y para siempre Tú vives
             Bm                   D
    Te a - doro/ Porque Tu eres grande/
                  A                        G
    Porque eres Fuerte/ y para siempre Tú vives
              Bm  D     A     G
    Tú Eres Dios
  • F# G# A B
    
    B D G G
    
    G A G E
    
    E A G F#
    
    F# G# A B...
    
    B               D                  A              G
    Tantos motivos hay tantas razones sobran para cantarte
      B              D                  A                  G
    Mas yo te canto hoy Porque Tu eres Dios Vivo para exaltarte
    
    
         G                    D
    Te adoro porque Tu eres bueno
                   A                      Em
    Porque eres eterno Y para siempre Tú vives
    
  • e|------------------------------------------------|      |---------|
    B|------------------------------------------------|      |---------|
    G|o----------------------------------------o| X 2 |--------|
    D|o----------------------------------------o|     |--------|
    A|-------1-2----4-5----------0-2------------------|      |-----1-2-|
    E|---2-5------------3-3----------0-0------0-5-4-3-|      |-2-5-----|
    
    
    VERSO:
    
    Bm                 D                     A               G
    Tantos motivos hay/ tantas razones sobran/ para cantarte
    Bm                 D                    A                    G
    Mas yo te canto hoy/ Porque Tu eres Dios/ Vivo para exaltarte
    
    CORO:
            Bm                    D
    Te a - doro/ Porque Tu eres bueno/
                  A                       G
    Porque eres eterno/ Y para siempre Tú vives
    
  • Intro: Bm   D     A     G
    
    e|------------------------------------------------|
    B|------------------------------------------------|
    G|---------4--------------------------------------|  X2
    D|---------4--------------------------------------|
    A|-------1-2----4-5----------0-2------------------|
    E|---2-5------------3-3----------0-0------0-5-4-3-|
    
    e|------------------------|
    B|------------------------|
    G|---------4--------------|
    D|---------4--------------|
    A|-------1-2--------------|
    E|---2-5------------------|
    
    
    2DA Guitarra.
    E|-------7-------7--------7---------7-----------|
    B|-------7-------7--------7---------7-----------|
    
  • +
    ¡Colabora con nosotros!
    Envíanos tu versión de esta canción

Letra de Te Adoro
Tantos motivos hay/ tantas razones sobran/ para cantarte
Mas yo te canto hoy/ Porque Tu eres Dios/ Vivo para exaltarte
Te a - doro/ Porque Tu eres bueno/
Porque eres eterno/ Y para siempre Tú vives
Te a - doro/ Porque Tu eres grande/
Porque eres Fuerte/ y para siempre Tú vives
Tú Eres Dios




[Te Adoro chords][Te Adoro cifra]
© LaCuerda.net · aviso legal · privacidad · es · en · pt · contacto