Acordes de Guitarra » B »La Banda de Jack » Luces de Neón (Tab)

Luces de Neón
La Banda de Jack

Letras, Acordes y Tabs para Guitarra, Bajo y Ukulele

  •         E  A  D  G  B  E 
            ----------------
      Sim#= 3  3  5  5  4  3
       Si7= 0  2  1  2  0  2   
      Mi7#= x  x  3  5  4  5
    
    
     SOL           RE          MIm
       Cierro la puerta y otra vez
          SIm         DO
       el uno, dos y tres
          SIm            LAm  RE
       de una nueva canción
     
     SOL           RE         MIm  
       No es tan dificil recordarte
               SI7         DO
       pues la tarde tarde es
         SIm           DO
       y tu te fuiste ayer
    
  • e|-------------------0-------|
    B|------0---------3---3------|
    G|-----0---------0-----0-----|
    D|----2---------2------------|
    A|---2------3----------------|
    E|--0------------------------|
    
      Cierro la puerta y otra vez...                              ...canción
    
       SOL        RE          MIm        SIm        DO         SIm       LAm        RE
    e|-3---3----|-2---2----|----------|----------|------0---|------2---|-----0----|-2--2-3-2-|
    B|--3---0---|--3---3---|------0---|-----2-3--|--1----1--|-----3-3--|-1----1---|--3-------|
    G|---0---0--|---2---2--|-----0-0--|----4-----|---0----0-|----4---4-|--2----2--|---2------|
    D|--------0-|--------0-|----2---2-|---4------|----2-----|---4------|---2----2-|----------|
    A|----------|----------|---2------|--2-------|----------|--2-------|----------|----------|
    E|----------|----------|--0-------|----------|----------|----------|----------|----------|
    
      No es tan dificil...
    
       SOL        RE         MIm         SI7       DO
    
  • +
    ¡Colabora con nosotros!
    Envíanos tu versión de esta canción

Letra de Luces de Neón
Cierro la puerta y otra vez
el uno, dos y tres
de una nueva canción

No es tan dificil recordarte
pues la tarde tarde es
y tu te fuiste ayer
y ayer temprano fue

Hoy sobra espacio sin color
en esta habitación
que fuera tu cuartel

Hoy tu guitarra ya ni va
con el color del tapizon
y el piano se marcho
siguiendote y juro que un día volveras


Te salieron alas que no pediste
Te subiste a un tren y no volviste
Quien te puso en la lista quiero saber
Borrado no puede ser ...

Siempre quisiste ser aquel
que brille en un parque
con luces de neon

Cuantos aplausos se quedaron
con las ganas de sonar
cuantas gaviotas mas
que no podrán volar

Pues dibujaste con tu voz
estrellas cielo y sol
paisajes de tu amor

Cierro la puerta y otra vez
escuchare tu corazón
y el piano encontro
y la hizo prometer que un día volveras
(Repetir coro)
@(KyA)@

Video de Luces de Neón
[]




[Luces de Neón chords][Luces de Neón cifra]
© LaCuerda.net · aviso legal · privacidad · es · en · pt · contacto