Acordes de Guitarra » B »Baby Rasta y Gringo » Mañana sin ti (Tab)

Mañana sin ti
Baby Rasta y Gringo

Letras, Acordes y Tabs para Guitarra, Bajo y Ukulele

  • Am              F                 G
    Tu me dices que no te vuelva a llamar
                  E
    Y olvidas que eres de mi vida
       Am                  F
    La luz que no puedo apagar
                     G
    Le temo a la soledad
                        E                 Am
    Sin ti soy un pobre ciego en la oscuridad
                  F
    Una marioneta sin titiritero
    G
    Soy una nube negra
              E
    Que se le ha perdido el cielo
       Am
    Yo sin ti soy fuego
           F
    Que se hunde y se apaga
    
  • Hola a todos esta es mi 1ra colaboracion asi que cualquier comentario favor
    escribirme. saludos a toda Nicaragua!
    
    E--0-----------0--0----------0-------------------0---0---0----------------
    B-------------------------------3--------------3---3---3---3--------------
    G-----2--2--2-------2--2--2--------4--4--4--2----------------5--4--5--5---
    D-------------------------------------------------------------------------
    A-------------------------------------------------------------------------
    E-------------------------------------------------------------------------
    
    
    E-----------------------------0-------------0------------------------------
    B--------------------------3-----3-------3-----3--------3------------------
    G--4--5--5--4--5--5--4--5----------4--5-----------4--5---------------------
    D--------------------------------------------------------------------------
    A--------------------------------------------------------------------------
    E------------------------------------
  • Intro
    E--0-----------0--0----------0-------------------0---0---0----------------
    B-------------------------------3--------------3---3---3---3--------------
    G-----2--2--2-------2--2--2--------4--4--4--2----------------5--4--5--5---
    D-------------------------------------------------------------------------
    A-------------------------------------------------------------------------
    E-------------------------------------------------------------------------
    
    E-----------------------------0-------------0--------------0---------------
    B--------------------------3-----3-------3-----3--------3-----3-----3------
    G--4--5--5--4--5--5--4--5----------4--5-----------4--5-----------5-----2---
    D--------------------------------------------------------------------------
    A--------------------------------------------------------------------------
    E--------------------------------------------------------------------------
  • +
    ¡Colabora con nosotros!
    Envíanos tu versión de esta canción

Letra de Mañana sin ti
Tu me dices que no te vuelva a llamar
Y olvidas que eres de mi vida
La luz que no puedo apagar
Le temo a la soledad
Sin ti soy un pobre ciego en la oscuridad
Una marioneta sin titiritero
Soy una nube negra
Que se le ha perdido el cielo
Yo sin ti soy fuego
Que se hunde y se apaga
En el agua, tengo miedo
Yo tengo miedo...
Y hoy, mañana sin ti
Con mi soledad
Sin ti no soy nada
No puedo mas
Hoy, mañana sin ti
Con mi soledad
Hoy te digo adios aunque me duela
Y hoy, mañana sin ti
Con mi soledad
Sin ti no soy nada
No puedo mas
Hoy, mañana sin ti
Con mi soledad
Hoy te digo adios aunque me muera (Hoy...)
A mi no me importa lo que diga tu madre
Y tampoco lo que piense tu padre
A mi lo unico que me importo
Es serte fiel, y darte mi amor
Y como me gustaria gritar a los cuatro vientos
Y decirte lo mucho que te quiero
Pero eso nunca a ti te importo
Porque te fuiste sin decir adios
Ven, tienes que volver
Yo entiendo muy bien
Que te dijeron
Que yo no te merezco
Esta bien
En que yo falle
Si quieres, matame
Pero te di lo mejor
Pa' que me puedas querer
Toda la vida, niña mía
No te dejes llevar
Por lo que digan tus amigas o tu mamá
Tu sabes bien lo que tanto por ti siento
Que yo te quiero mas que nadie
Te quiero mas que siempre
Y hoy, mañana sin ti
Con mi soledad
Sin ti no soy nada
No puedo mas
Hoy, mañana sin ti
Con mi soledad
Hoy te digo adios aunque me duela
Y hoy, mañana sin ti
Con mi soledad
Sin ti no soy nada
No puedo mas
Hoy, mañana sin ti
Con mi soledad
Hoy te digo adios aunque me muera
Tu sabes bien
Que el te desea amar
Se desespera
Porque a su lado no estas
No te va hacer daño
Porque tu eres su pretty yal
Eres la única en su vida que lo pone a temblar
Es que el no puede mas
Le parte esa soledad
La tristeza que el tiene
Tu la puedes sanar
Es que el que te quiere amar
Dale otra oportunidad
Te va a llenar de tanto amor
Que no lo vas aguantar
Y hoy, mañana sin ti
Con mi soledad
Sin ti no soy nada
No puedo mas
Hoy, mañana sin ti
Con mi soledad
Hoy te digo adios aunque me duela
Y hoy, mañana sin ti
Con mi soledad
Sin ti no soy nada
No puedo mas
Hoy, mañana sin ti
Con mi soledad
Hoy te digo adios aunque me muera
(Hoy...)
(Mañana sin ti...)
(Mañana sin ti...)
(Con mi soledad...)
(Yo tengo miedo...)
(Yo tengo miedo...)
(Hoy...)
(Uuuuu...)




[Mañana sin ti chords][Mañana sin ti cifra]
© LaCuerda.net · aviso legal · privacidad · es · en · pt · contacto
DINAMICO