Tablatura para Bajo de los Babasónicos: Estertor
Conexión · Inscripción
Letras y Acordes
Pantalla Completa
Imprimir
Versión Texto
Añadir Favorito
Otras Versiones

Mostrar Diagramas
Desfile Automático
Formato del Texto


Estertor(BAJ)

los Babasónicos

calidad:
baba0453
AUTOR: Adrián Rodríguez
ALBUM: Infame
Enviado por Martin
Babasonicos - Estertor

Asi es como empieza la intro del bajo:

G----------------------------------------
D----------------------------------------
A----5/7----------5/7--------------------
E-0------7-6-5-0-------7-6-5-6-----------

Verso:

G----------------------------------------
D----------------------------------------
A----------------------------------------
E-0-0-0--3--3--5-------------------------


Estribillo:
G--------------------------------------------------------
D--------------------------------------------------------
A--------------------------------------------------------
E-0---0-0-0-0---3---3-3-3-3---5---5-5-5-5--3---3-3-3-3---

Eso es la base del tema
lo demas se va repitiendo
espero haber ayudado
Este fichero es trabajo propio de su transcriptor y representa su interpretación personal de la canción. El material contenido en esta página es
para exclusivo uso privado, por lo que se prohibe su reproducción o retransmisión, así como su uso para fines comerciales.


© LaCuerda.net · Aviso Legal · Privacidad