Acordes de Guitarra » A »Axel Catalán » Apocalipsis Romántico (Tab)

Apocalipsis Romántico
Axel Catalán

Letras, Acordes y Tabs para Guitarra, Bajo y Ukulele

  • e|----------------------------------------------------------------|
    B|----------------------------------------------------------------|
    G|----------------------------------------------------------------|
    D|----------------------9-10-9-10/12-12-10-12-10-12/14--14-12--10-|
    A|--------------9-10-12-------------------------------------------|
    E|-10-10-8---10---------------------------------------------------|
    
    e|--------------------------------------------------------|
    B|--------------------------------------------------------|
    G|--------------------------------------------------------|
    D|----------------------9-10-10-10-9-9-9-7-7-7------------|
    A|--------------9-10-12------------------------10-10-10-9-|
    E|-10-10-8---10-------------------------------------------|
    
    e|--------------------------------------------------------|
    B|--------------------------------------------------------|
    G|--------------------------------------------------------|
    D|----------------------9-10/14-14-14-14-14B-12-14-12-10--|
    A|--------------9-10-12-----------------------------------|
    E|-10-10-8---10-------------------------------------------|
    
  • +
    ¡Colabora con nosotros!
    Envíanos tu versión de esta canción

Letra de Apocalipsis Romántico
fin
Visita mi cana de Youtube NetaMario




[Apocalipsis Romántico chords][Apocalipsis Romántico cifra]
© LaCuerda.net · aviso legal · privacidad · es · en · pt · contacto
DINAMICO