Acordes de Guitarra » A »Aurum » Contrareloj (Tab)

Contrareloj
Aurum

Letras, Acordes y Tabs para Guitarra, Bajo y Ukulele

  • K pex Bueno aqui les dejo mi version de sta rolota de aurum con todo
    y arreglos la ske de oido y creo k sta bn y ps ay chekenla y ps va
    para los flix jjaja y para toda la bandera k le gusta aurum
    yeah chido rock y chido aurum la nta rifan bn chido.
    
    Guitarra 1
    Intro
    E|--------------------------------------------
    B|--------------------------------------------
    G|-6-------6-----6666---------6666------------
    D|-6-3-4---6-6---4444-3-4444--6666-6666-------
    A|-4-3-4---4-6---4444-3-4444--4444-6666-------
    E|---1-2-----4--------1-2222-------4444—4/14/4
    
    Verso
    (Con Palm Muted)
    E|---------------------------------------
    B|---------------------------------------
    G|----------66666666---------------------
    D|-44444444-66666666-44444444-66666666--- X2
    A|-44444444-44444444-44444444-66666666---
    E|-22222222----------22222222-44444444---
    
    Precoro
    E|---------------------------------------
    B|---------------------------------------
    G|---------------------------------------
    D|-88-33-44444444-88-33-4444-6666---
  •                 Cm FA FAm  h  Cm   A FA FAm  h Cm
    Cm
    Es poco el tiempo y lo tenemos contado
    FAm
    Así que escúchame con calma y luego piensa en uir
     Cm
    Sabes que has hecho o lo que hemos logrado
      p
    Un simple adiós no es suficiente para dejar te ir
    
     Cm
    Quizás es cierto tal vez reforzando tus labios
     Fm
    Solo un beso me dirás si en verdad te quieres  ir
     Cm
    Es que no entiendo dime lo que estas pensando
      p
    Escucha no sabes lo que es estar así
    
       Cm FA FAm             A  FA p
    
  • D#|------------------------------------------
    A#|----------8-7--------------8-7------------
    F#|----------7-7--------------7-7------------
    C#|-0--4-5---5-5---1212--4-5--5-5------------
    G#|-0--4-5---------1212--4-5-----------------
    C#|-0--4-5---------1212--4-5-------1-1/11/1--
    
    Verso
    (Con Palm Muted)
    D#|---------------------------------------
    A#|---------------------------------------
    F#|---------------------------------------
    C#|-55555555-0000000-55555555-77777777---- X2
    G#|-55555555-0000000-55555555-77777777----
    C#|-55555555-0000000-55555555-77777777----
    
    Precoro
    D#|---------------------------------------
    A#|---------------------------------------
    F#|---------------------------------------
    
  • Intro:
    
    G|-------------------|  (x2)
    D|-------------------|
    A|--3/-7-0---9-------|
    E|--------------11-0-|
    
    Verso:
    
    G|-----------------------|-----------------------|
    D|-----------------------|-----------------------|
    A|------------4444444444-|------------4444444444-|
    E|-2222222222------------|-2222222222------------|
    
    G|-----------------------|-----------------------|
    D|-----------------------|-----------------------|
    A|------------4444444444-|------------4444466666-|
    E|-2222222222------------|-2222222222------------|
    
    Pre-Coro:
    
    G|---------------|----------------|
    D|---------------|----------------|
    A|-88-33-4-444444|-88-33-4-444466-|
    E|---------------|----------------|
    
    Coro: (x2)
    
    G|------------------------------|
    D|------------------------------|
    A|----------4-44-5-55-7-77-9-99-|
    E|-22222222---------------------|
    
    G|------------------------|
    D|------------------------|
    A|------------------------|
    E|-22222222-666666-444444-|
    
    
    Otra vez el intro (sólo una vez).
    
    G|------------------
  • +
    ¡Colabora con nosotros!
    Envíanos tu versión de esta canción

Letra de Contrareloj
Es poco el tiempo y lo tenemos contado
Así que escúchame con calma y luego piensa en uir
Sabes que has hecho o lo que hemos logrado
p
Un simple adiós no es suficiente para dejar te ir
Quizás es cierto tal vez reforzando tus labios
Es que no entiendo dime lo que estas pensando
p
Escucha no sabes lo que es estar así
Oblígame fingir que no duele el miedo
Piensa bien las excusas suele ser armas Que nunca te van muy bien
Te veré arrepentirte otra vez Ya sera tarde y no regresare
Es poco el tiempo y lo tenemos contado
Así que escúchame con calma y luego piensa en u ir
Sabe que es has hecho o lo que hemos logrado
p
Perdido lo suficiente y a hora apuesto por ti
Obliga a fingir que no duele el miedo
Piensa bien las excusas suele ser armas Que nunca te van muy bien
Te veré arrepentirte otra vez Se ase la tarde y no regresare
Piensa bien las excusas suele ser armas Que nunca te van muy bien
Te veré arrepentirte otra vez Se ase la tarde y no regresare
final:
Después de las dos veces por Ultimo un rasgueo en cm
H
P
esto va al incio del coro
ps ay esta la rola de aurum,espero que les guste
si tienen duda mi correo es adarga92@hotmail.com
o sino tambien charly_25-92@hotmail.com

Video de Contrareloj
[]




[Contrareloj chords][Contrareloj cifra]
© LaCuerda.net · aviso legal · privacidad · es · en · pt · contacto