Acordes de Guitarra » A »Augusto Polo » Cuando llora mi guitarra (Tab)

Cuando llora mi guitarra
Augusto Polo

Letras, Acordes y Tabs para Guitarra, Bajo y Ukulele

  • |--14--10----7------7--10-10-9--10-9--10-|
    |--15--12---------7----12-12-11-12-11-12-|
    |----------7----7------------------------|
    |----------------------------------------|
    |----------------------------------------|
    |----------------------------------------|
               T                         T
    |-9--8-9---5------5--9--9--8---9--8--9---|
    |-10-9-10--7----7---10-10--9--10-9--10---|
    |-------------7--------------------------|
    |----------------------------------------|
    |----------------------------------------|
    |----------------------------------------|
                   T
    |-4s9--7-7-8-8-9------4--7-7-6-7--9------|
    |-5s10-9-9-9-9-9----6----9-9-8-9-10------|
    |-----------------6----------------------|
    |----------------------------------------|
    |----------------------------------------|
    |----------------------------------------|
    
  • Mi Primera transcripcion...
    
    En la version de Rafael Matallana
    Si tienen correcciones seran bien recibidas..disfrutenla
    
    
    _  e||--12-12-~---~8---7-7-----------------
    _) B||--13-13-~---~10--8-8------9----8-----
       G||-------------------------------------
    _  D||-------------------------------------
    _) A||-----------------------11---10-------
       E||-------------------------------------
    __/
    
    
    
    _  e||--7-8--8---7-8--7-10---10-10~8--7-7--
    _) B||--8-10-10--8-10-8-12---12-12~10-8-8--
       G||-------------------------------------
    _  D||-------------------------------------
    _) A||-------------------------------------
       E||-------------------------------------
    __/
    
    
    _  e||-----7----77676~7--------------------------
    _) B||----8----888787~8---10--9-10-10-11-11------
       G||---9----9------(9)--11-10-11-11-12-12------
    _  D||--9----9------------------------------*--9-
    _) A||-------------------------------------------
       E||-------------------------------------------
    __/
    
    
    _  e||------------------7-8--7-
  • +
    ¡Colabora con nosotros!
    Envíanos tu versión de esta canción



Video de Cuando llora mi guitarra
[]




[Cuando llora mi guitarra chords][Cuando llora mi guitarra cifra]
© LaCuerda.net · aviso legal · privacidad · es · en · pt · contacto