Acordes de Guitarra » A »Augusto Polo » Cariño Bonito (Tab)

Cariño Bonito
Augusto Polo

Letras, Acordes y Tabs para Guitarra, Bajo y Ukulele

  • E----0
    B----3
    G----2
    D----3
    A----2
    E----X
    Intro: 2Dm 2Am Bm7-5 E7 Am
    
    ----       Am      E             Am     E7
    Donde se duermen    tus ojos chinitos 
           Am         F           E      E7
    cariño bonito por donde andarás
              Bm7-5 E              Bm7-5       E
    siento que vienen   tus pies chiquititos
          Bm7-5  E           Am            E7
    cariño bonito    cuando volverás
             Am    E              Am
    duele tu ausencia  cuando estoy solito
           A7                    Dm
    cariño bonito ven, ven que quiero más
    
  • |--s9--8-9--8-9---------9--8-9--8-t9---------|
    |--s10-9-10-9-10--------10-9-10-9-t10--------|
    |--------------------------------------------|
    |--------------------------------------------|
    |--------------------------------------------|
    |-----------------5-4-2---------------4-2-0--|
    
    |--8-9--10---11----------------------------|
    |--9-10-11-12------------------------------|
    |------------------------------------------|
    |-------------------s6---s6---6---6--------|
    |------------------------------------------|
    |----------------------4----4---4----------|
    
    |-----------------------------------------S9--|
    |-----------------------------------------S9--|
    |-----------------------------------------S9--|
    |---------------------------------------------|
    |---7--4----7--4--7-4---7-4--6h7-4---7-4------|
    |---------4-----------4------------4----------|
    
  • +
    ¡Colabora con nosotros!
    Envíanos tu versión de esta canción

Letra de Cariño Bonito
Donde se duermen tus ojos chinitos
cariño bonito por donde andarás
siento que vienen tus pies chiquititos
cariño bonito cuando volverás
duele tu ausencia cuando estoy solito
cariño bonito ven, ven que quiero más
y si no sabes que te necesito
pasa un ratito por mi soledad
cariño bonito tendrás que llorar}(bis)
Cariño regresa a mi lado
ven acá cariño yo sé que me quieres
cariño, cariño no me has olvidado
ven acá cariño tu amor no se muere
te recordaré me recordarás
yo te extrañaré tú me extrañarás
yo te buscaré tú me buscarás
yo te encontraré tú me encontrarás
te perdonaré me perdonarás
siempre te querré siempre me querrás
siempre te diré siempre me dirás
Cariño, cariño.cariño, cariño, cariño, cariño
donde se duermen tus ojos chinitos
cariño bonito por donde andarás.

Video de Cariño Bonito
[]




[Cariño Bonito chords][Cariño Bonito cifra]
© LaCuerda.net · aviso legal · privacidad · es · en · pt · contacto