Acordes de Guitarra » A »AU-D » Respirar (Tab)

Respirar
AU-D

Letras, Acordes y Tabs para Guitarra, Bajo y Ukulele

  • INTRO: B-F#-G#m-E-F#
    
               B                F#                 E
    e||---------7---2---|-------2--------|---------0--------|
    B||------4----------|-----2----2-----|------0------0----|
    G||----4------------|---3------------|---1--------------|
    D||-----------------|----------------|------------------|
    A||-----------------|----------------|------------------|
    E||-----------------|----------------|------------------|
    
              F#
    e|---------2--------|
    B|------2------2----|
    G|---3--------------|
    D|------------------|
    A|------------------|
    E|------------------|
    
    e||---------2-------|
    B||-----0-2---2-0---|
    
  • INTRO: B-F#-G#m-E-F#
    
               B                F#              G#m               E                 F#
    e||---------7---2---|-------2--------|---------4-----|---------0--------|---------2--------|
    B||------4----------|-----2----2-----|------4----4---|------0------0----|------2------2----|
    G||----4------------|---3------------|---4-----------|---1--------------|---3--------------|
    D||-----------------|----------------|---------------|------------------|------------------|
    A||-----------------|----------------|---------------|------------------|------------------|
    E||-----------------|----------------|---------------|------------------|------------------|
    
    
        B
    Ya son algunos dias tirado en el suelo
        F#
    contando las grietas en el techo mirando hacia el cielo
        G#m
    Ya son algunos dias, me parecen años
       E                     F#
    que no me arreglo no me peino no me baño
        B
    
  •          B5     F#         G#m               E
    e||---7------|---2------|---4-------|---0-------|
    B||---7------|---2------|---4-----  |---0-------|
    G||---8------|---3------|---4------ |---1-------|
    D||---9------|---4------|-- 6-------|---2-------|
    A||---9---- -|---4------| --6-------|---2-------|
    E||---7------|---2------|---4-------|---0-------|
    
    
    
    Esta es la forma correcta del arpegio
    
    
    
             B5                F#              G#m               E
    e||--------7------|--------2-------|----- -4-------|-------0---------|
    b||----------7----|----------2---- |--------4----- |---------0-------|
    G||------8--------|-----3----------|----4----------|------1----------|
    D||---9-----------|---4------------|--6------------|----2------------|
    A||------------- -|----------------|---------------|-----------------|
    
  • INTRO: B  F# G#m E
    
    
    ACORDES:
    
          B          F#         G#m         E
    e||---7------|---2------|---4-------|---0-------|
    B||---7------|---2------|---4-----  |---0-------|
    G||---8------|---3------|---4------ |---1-------|
    D||---9------|---4------|-- 6-------|---2-------|
    A||---9---- -|---4------| --6-------|---2-------|
    E||---7------|---2------|---4-------|---0-------|
    
    
    
    Esta SÍ es la forma correcta del arpegio
    
    
    
             B             F#            G#m       E            F#
    
  • +
    ¡Colabora con nosotros!
    Envíanos tu versión de esta canción

Letra de Respirar
Ya son algunos dias tirado en el suelo
contando las grietas en el techo mirando hacia el cielo
Ya son algunos dias, me parecen años
que no me arreglo no me peino no me baño
ya son algunos dias, creo que semanas
que no tengo las fuerzas, animo, ganas
ya son algunos dias que llevo en esta ropa
impregnado en el adios que salio de tu boca
y me he quedado helado, parado, plantado,
preguntandome mil veces como fui tan tarado
como pude permitir que me ganara el orgullo
como pude dejarte ir sin decirte que soy tuyo y ahora,
estoy pagando este rol bien caro
recordando a cada rato que no estas a mi lado
como un pez fuera del agua como un pez fuera del mar
ahogado sin cariño y sin poder respirar....respirar
En cada paso que doy, en cada direccion que voy
me haces falta como aire al respirar
voy tropezandome en recuerdos, casi loco casi cuerdo
me haces falta como aire al respirar
Y me debato entre loco y cuerdo
tratando de olvidar pero atrapado en tus recuerdos
de tus caricias, tus sonrisas, tus miradas
de la forma tan sexi que susurras tus palabras
de tus arrebatos, de tus locuras, de tus peleas, celos y ternuras
de ese perfume que un dia se pego en mi piel,
de ese perfume que un dia se tomo mi ser
es que no entiendes aqui estoy mal
lo que antes era dulce ahora me sabe a sal
no quiero las ganas, no quiero las fiestas, no quiero ni amigos,
no quiero divertirme si no estoy aqui contigo
y no preguntes, no hay explicacion
mi corazon esta nublando toda mi razon
yo solo se que para mi amrte es vital
como el aire en mis pulmones... al respirar...al respirar
En cada paso que doy, en cada direccion que voy
me haces falta como aire al respirar
voy tropezandome en recuerdos, casi loco casi cuerdo
me haces falta como aire al respirar
Porque cada celula de mi cuerpo se alimenta de tu amor
porque cada minuto sin ti es vivir en el dolor
B/F#/Gm#/E/F#
En cada paso que doy, en cada direccion que voy
me haces falta como aire al respirar
voy tropezandome en recuerdos, casi loco casi cuerdo
me haces falta como aire al respirar




[Respirar chords][Respirar cifra]
© LaCuerda.net · aviso legal · privacidad · es · en · pt · contacto