Tablatura para Guitarra de Attaque 77: Ya me aburrí
Conexión · Inscripción
Letras y Acordes
Pantalla Completa
Imprimir
Versión Texto
Añadir Favorito
Otras Versiones

Mostrar Diagramas
Desfile Automático
Manipular Acordes
Formato del Texto


Ya me aburrí(TAB)

Attaque 77

calidad:
at770952
AUTOR: Attaque 77  corregir
ALBUM: desconocido
Enviado por Martin
Al final de la canción, Mariano hace el punteo de la canción de los Looney Tunes.
Y como cuando uno esta la pedo puede hacer cosas extrañas, para todos ustedes, el punteo.

e----------------------------------------------------------
B-5-3----3-5-3-5-------------------------------------------
G-----5-----------5-5/7-7-7-7---7-5-4--5-7-5-7--4-5-5-5-5--
D----------------------------------------------------------
A----------------------------------------------------------
E----------------------------------------------------------

e-----------------------------------------
B----------------------------------5-5-5--
G----------------7-7-7--------------------
D-5-5b7-5-5b7-5---------5-7-5-7-5---------
A-----------------------------------------
E-----------------------------------------

e------------------------------------------3--
B-5-3----3-5-3-5----------------3-----3--5----
G-----5-----------5-5/7-7-7-7-----------------
D---------------------------------5-5---------
A---------------------------------------------
E---------------------------------------------

Referencias:
/ = Deslizar hasta la cuerda indicada (Slide)
b = Estirar a cuerda hasta cnseguir el sonido indicado (Bending)
Este fichero es trabajo propio de su transcriptor y representa su interpretación personal de la canción. El material contenido en esta página es
para exclusivo uso privado, por lo que se prohibe su reproducción o retransmisión, así como su uso para fines comerciales.

© LaCuerda.net · Aviso Legal · Privacidad