Tablatura para Bajo de Attaque 77: Fotos De Lily
Conexión · Inscripción
Letras y Acordes
Pantalla Completa
Imprimir
Versión Texto
Añadir Favorito
Otras Versiones

Mostrar Diagramas
Desfile Automático
Formato del Texto


Fotos De Lily(BAJ)

Attaque 77

calidad:
at770472
AUTOR: Pete Towchend
ALBUM: Otras canciones (1999)
Enviado por Mad
-==|Parte A|==-

          C       Cmaj7/B     A-                  G                 G                x2
G|----||-------------------|-------------------|-----------------|-------------------||
D|-4:-|*-------------------|-------------------|-----------------|-------------------*|
A|-4:-|*--3-3-3-3-2-2-2-2--|--0-0-0-0-0--------|-----------------|-------------------*|
E|----||-------------------|------------0-1-2--|--3-3-3-3-3-3-3--|--3-3-3-3-3-3-0-2--||
          e e e e e e e e     e e e e e e e e     e e e e e e e     e e e e e e e e


    A-    G        F     E        A-             G
G|-----r-----r--|-----r-----r--|-----r--r--r--|-----r--r--r--|
D|-----e-----e--|-----e-----e--|-----e--e--e--|-----e--e--e--|
A|-----s-----s--|-----s-----s--|-----s--s--s--|-----s--s--s--|
E|--5--t--3--t--|--1--t--0--t--|--5--t--t--t--|--3--t--t--t--|
    q  q  q  q     q  q  q  q     q  q  q  q     q  q  q  q
    

    C       C/B         A-      A-          G7                   G7
G|-------------------|-------------------|---------r---r---r--|----r---r---r---r---r-||
D|-------------------|-------------------|---------e---e---e--|----e---e---e---e---e-||
A|--3-3-3-3-2-2-2-2--|--0-0-0-0-0-0------|---------s---s---s--|----s---s---s---s---s-||
E|-------------------|--------------0-1--|--2-3--3-t-3-t-3-t--|--3-t-3-t-3-t-3-t-3-t-||
    e e e e e e e e     e e e e e e e e     e e  e e e e e e     e e e e e e e e e e


-==|Parte B|==-

     C     C/B      A-    A-7/G    F     C/E   |1| D       G       |2| D-      E7
G||-----r-----r--|-----r-----r--|-----r-----r--|-------------------|-------------------|
D||-----e-----e--|-----e-----e--|-----e-----e--|-----2-3-4-5-3-2---|-------------------|
A||--3--s--2--s--|--0--s-----s--|-----s-----s--|---5-------------5-|---5-5-5-5-7-7-7-7-|
E||-----t-----t--|-----t--3--t--|--1--t--0--t--|-------------------|-------------------|
     q  q  q  q     q  q  q  q     q  q  q  q      e e e e e e e e     e e e e e e e e

-==|Parte C|==-

    A     A/G#     F#-   F#-7/E   D     A/G#     B-    E
G|-----r-----r--|-----r-----r--|-----r-----r--|-----r-----r--|
D|-----e-----e--|-----e-----e--|-----e-----e--|-----e-----e--|
A|-----s-----s--|-----s-----s--|--5--s--4--s--|--2--s-----s--|
E|--5--t--4--t--|--2--t--0--t--|-----t-----t--|-----t--0--t--|
    q  q  q  q     q  q  q  q     q  q  q  q     q  q  q  q

     
    A     A/G#     F#-   F#-7/E   D              E7             E7
G|-----r-----r--|-----r-----r--|-----r-----r--|-----r-----r--|-----r-----r--||
D|-----e-----e--|-----e-----e--|-----e-----e--|-----e-----e--|-----e-----e--||
A|-----s-----s--|-----s-----s--|--5--s--5--s--|--7--s--7--s--|--7--s--7--s--||
E|--5--t--4--t--|--2--t--0--t--|-----t-----t--|-----t-----t--|-----t-----t--||
    q  q  q  q     q  q  q  q     q  q  q  q     q  q  q  q     q  q  q  q
              

-==|Parte D|==-    

     E             2x      A             2x     D           2x     G7          2x
G||-------------r--||--||-------------r--||--||-------------||--||-------------||
D|*-------------e--*|--|*-------------e--*|--|*-------------*|--|*-------------*|
A|*--7-7-7-5-7--s--*|--|*-------------s--*|--|*-5-5-5-3-5-3-*|--|*-------------*|
E||-------------t--||--||--5-5-5-3-5--t--||--||-------------||--||-3-3-3-1-3-1-||
     e e e e q  q          e e e e q  q         e e e e q q        e e e e q q


-==|Parte E|==-

     A     A/G#     F#-   F#-/E    D     A/C#     D     E 

E||-----r-----r--|-----r-----r--|-----r-----r--|-----r-----r--|
D||-----e-----e--|-----e-----e--|-----e-----e--|-----e-----e--|
A||-----s--4--s--|-----s-----s--|--5--s--4--s--|--4--s--7--s--|
E||--5--t--4--t--|--2--t--0--t--|-----t-----t--|-----t-----t--|
     q  q  q  q     q  q  q  q     q  q  q  q     q  q  q  q

    A     A/G#     F#-   F#-/E    D              E7
G|-----r-----r--|-----r-----r--|-----r-----r--|-----------------||
D|-----e-----e--|-----e-----e--|-----e-----e--|-----------------||
A|-----s-----s--|-----s-----s--|--5--s--5--s--|--7--7--7--5--7--||
E|--5--t--4--t--|--2--t--0--t--|-----t-----t--|-----------------||
    q  q  q  q     q  q  q  q     q  q  q  q     q  q  q  q  h    


=============================================================================
==             REFERENCIA             ====            ORDEN                ==
=============================================================================
                                           
||------|| Repeat                           Parte A
||*----*||                                  Parte B.1
||*----*||                                  Parte B.2
||------||                                  Parte C
                                            Parte D
----------                                  Parte A
-4:------- Time                             Parte B
-4:------- Signature                        Parte E
----------         

Notas:
  h = blanca     H = blanca puntillada
  q = negra      Q = negra puntillada
  e = corchea    E = corchea puntillada

.*.*.*.*.*.*----------------========++++++++========----------------*.*.*.*.*.*.

Comentarios, quejar o dudas, manden un mail. 
Espero que entiendan el tab.

Aguante Attaque!!! Aguante Raffa Gorgory!!!
Este fichero es trabajo propio de su transcriptor y representa su interpretación personal de la canción. El material contenido en esta página es
para exclusivo uso privado, por lo que se prohibe su reproducción o retransmisión, así como su uso para fines comerciales.

© LaCuerda.net · Aviso Legal · Privacidad