Tablatura para Guitarra de Attaque 77: Canción del Adiós
Conexión · Inscripción
Letras y Acordes
Pantalla Completa
Imprimir
Versión Texto
Añadir Favorito
Otras Versiones

Mostrar Diagramas
Desfile Automático
Manipular Acordes
Formato del Texto


Canción del Adiós(TAB)

Attaque 77

calidad:
at770183
AUTOR: Cristian Aldana
ALBUM: Otras Canciones (99)
Enviado por diego
E ------------------------------------
B ----0-2-3-3-2-3-2-3-5---------------
G --2---------------------------------
D ------------------------------------
A ------------------------------------
E ------------------------------------

E ------------------------------------
B ---0-2-3-3-2------------------------
G --2-----------2---------------------
D ------------------------------------
A ------------------------------------
E ------------------------------------

(tremolo...rapido con la mando derecha)
E -12-10-9-10-9-12-10-9-5-7-5---------
B ------------------------------------
G ------------------------------------
D ------------------------------------
A ------------------------------------
E ------------------------------------

tremolo...rapido con la mando derecha)
E -12-10-9-10-9-12-10-9-5-7-5---------
B ------------------------------------
G ------------------------------------
D ------------------------------------
A ------------------------------------

HE DESCUBIERTO,UN MUNDO NUEVO,
ME IRE SIN SALUDAR...

SI ES DIFICIL VOLVER A EMPEZAR
TU YA NO PIENSAS EN MI

Y AUNQUE NO ESCUCHES MI VOZ
SIEMPRE ESTARE  CERCA...CERCA..CERCA

LA VIDA SIGUE QUE NOS DEPARA.

-.-.-.-.-.-.-.-.-.-.-.-.-.--.-.-.-.-.-.-.-.-.-.-.-.-
AGUANTE ATTAQUE77.....
SILENE BERTELLI TE AMO UN MONTON....PIPIO77
E ------------------------------------
Este fichero es trabajo propio de su transcriptor y representa su interpretación personal de la canción. El material contenido en esta página es
para exclusivo uso privado, por lo que se prohibe su reproducción o retransmisión, así como su uso para fines comerciales.

© LaCuerda.net · Aviso Legal · Privacidad