Tablatura para Bajo de Attaque 77: Canción del Adiós
Conexión · Inscripción
Letras y Acordes
Pantalla Completa
Imprimir
Versión Texto
Añadir Favorito
Otras Versiones

Mostrar Diagramas
Desfile Automático
Formato del Texto


Canción del Adiós(BAJ)

Attaque 77

calidad:
at770182
AUTOR: Cristian Aldana
ALBUM: Otras Canciones (99)
Enviado por Mad
INTRO
  A             D
|-------------|-----------------|
|-7--7-5--5-7-|-----------------|
|-------------|-5-5-5-5-5-5-5-5-|
|-------------|-----------------|


VERSO
   A                 
|-------------------|
|*-----------------*|
|*-----------------*|
|--5-5-5-5-5-5-5-5--|


RIFF 1
  A                 D
|-----------------|-------------|
|-----------------|-------------|
|---------------4-|-5-5-5-5-4---|
|-5-5-5-5-5-5-5---|-----------5-|


ESTRIBILLO
  A                 D
|-----------------|-------------|
|-----------------|---7---------|
|---------------4-|-5---5-4---4-|
|-5-5-5-5-5-5-5---|---------5---|

  A                 D
|-----------------|-------------|
|-----------------|---4---6---4-|
|---------------4-|-5---5---5---|
|-5-5-5-5-5-5-5---|-------------|

El Riff 1 se usa para pasar del unir verso-estribillo y estribillo-verso, o como base en los punteos.
Este fichero es trabajo propio de su transcriptor y representa su interpretación personal de la canción. El material contenido en esta página es
para exclusivo uso privado, por lo que se prohibe su reproducción o retransmisión, así como su uso para fines comerciales.

© LaCuerda.net · Aviso Legal · Privacidad