Acordes de Guitarra » A »Atahualpa Yupanqui » Adiós Tucuman (Tab)

Adiós Tucuman
Atahualpa Yupanqui

Letras, Acordes y Tabs para Guitarra, Bajo y Ukulele

  • e|----------------------------------------------------------
    B|-------------5-8-7-5h7h5--------------0-3-1-1-0-----------
    G|-----------5-----------5------------0---------0-------0---
    D|-4-5-6-4-7-------------7----------2-----------------2-----
    A|-------------------------9-7--1-2-----------------2-----3-
    E|----------------------------------------------0-3---------
    
    ---------7---------0--3-5-7-8-7--------------0-3-2-0-2-0------
    -------7---10-7----------------------------1-----------1------
    -----8--------7--7-----------------------2-------------2------
    ---9----------7--7------4-5-7-5--4s5s6-4----------------------
    -----------------9---------------------------------------3--0-
    -7-----------------0------------------------------------------
    
    ---------------------------------------7-------------0--------------
    ---------0-3-1-0-1-0-----------------7---10-7------7-0--4---------0-
    -------0-----------0-------0-------8-----------7-9---0--2-------2---
    -----2-------------------2-------9----------7--
  • +
    ¡Colabora con nosotros!
    Envíanos tu versión de esta canción






[Adiós Tucuman chords][Adiós Tucuman cifra]
© LaCuerda.net · aviso legal · privacidad · es · en · pt · contacto