Acordes de Guitarra » A »Atahualpa Yupanqui » Luna tucumana (Tab)

Luna tucumana
Atahualpa Yupanqui

Letras, Acordes y Tabs para Guitarra, Bajo y Ukulele

  •   MI7              LAm  
    Yo no le canto a la luna
            MI7           LAm       LA7 
    porque alumbra y nada mas 
       REm                LAm
    le canto porque ella sabe       
           MI7      LAm                bis
    de mi largo caminar             
    
    Hay lunita tucumana 
    tamborcito calchaqui                  
    compañera de los gauchos    bis
    en las sendas de Tafí      
    
            (estribillo)
    
     SOL              DO 
    Perdido en las serrasones 
                 SOL7      FA7     DO       LA7
    quien sabe vidita por donde andare
    
  • e||-------------------------|--------------------0----|
    B||--0--3--3--1--0--3--1--1-|--0--1--3--3--1--3-------|
    G||-------------------------|-------------------------|
    D||-------------------------|-------------------------|
    A||-------------------------|-------------------------|
    E||-------------------------|-------------------------|
    ...Yo no le canto a la luna..Porque alumbra nada más
    
    
    e||--0--1--1--0-----1--0--0-|--------------------0----|
    B||--------------3----------|--0--1--3--3--1--3-------|
    G||-------------------------|-------------------------|
    D||-------------------------|-------------------------|
    A||-------------------------|-------------------------|
    E||-------------------------|-------------------------|
    ...Le canto porque ella sabe..De mi largo caminar.
    
    
    e||--0--1--1--0-----1--0--0-|-------------------------|
    B||--------------3----------|--0--1--3--3--1--0-------|
    
  • de mi largo caminar     bis
    1-|-------------0--|    |
    2-|-0-1-3-3-1-3----|    |
    3-|----------------|    |
    4-|----------------|    |
    5-|----------------|    |
    6-|----------------|    |
                           -|
    
    Estribillo
    
    Perdido en las cerrazones
    1-|-3-3-1-0—-0-1-0--|
    2-|--------3--------|
    3-|-----------------|
    4-|-----------------|
    5-|-----------------|
    6-|-----------------|
    
    Quien sabe vidita por donde andaré
    
  • La Luna Tucumana
    Atahualpa Yupanqui
    
    A) 4 (4) (4) 4 (3) (4) 4 4 - (3) 4 (4) (4) 4 (4) 5 -
         Yo no le canto a la luna porque alumbra y nada más
        5 (5) (5) 5 (4) (5) 5 5 - (3) 4 (4) (4) 4 (3) 4 -
        le canto porque ella sabe de mi largo caminar
             BIS (se toca todo el parrafo otra vez)
     
    B) 4 (4) (4) 4 (3) (4) 4 4 - (3) 4 (4) (4) 4 (4) 5 -
         Ay lunita tucumana tamborcito calchaqui
         5 (5) (5) 5 (4) (5) 5 5 - (3) 4 (4) (4) 4 (3) 4 -
         compañera de los gauchos en las sendas delTafi
       BIS
     
       Coro
     
    C) 6 6 (5) 5 (4) 5 (5) 5 -6 6 6 6 6 (5) 6 (6) 6 (5) 5
         Perdido en las cerrazones quien sabe vidita por donde andaré
          5 (5) (5) 5 (4) (5) 5 5 -(3) 4 (4) - 4 (4) 5 -
         más cuando salga la luna cantaré --- cantaré
          5 (5) (5) 5 (4) (5) 5 5 - (3) 4 (4) - 5 (5) 5 -- (3) 4 (6)
         a mí Tucumán querido cantaré – cantaré -- cantaré
         Va al final
     D) 4 (4) (4) 4 (3) (4) 4 4 - (3) 4 (4) (4) 4 (4) 5 -
         Con esperanza o con 
  • +
    ¡Colabora con nosotros!
    Envíanos tu versión de esta canción

Letra de Luna tucumana
Yo no le canto a la luna
porque alumbra y nada mas
le canto porque ella sabe }
de mi largo caminar }
Hay lunita tucumana
tamborcito calchaqui
compañera de los gauchos } bis
en las sendas de Tafí }
(estribillo)
Perdido en las serrasones
quien sabe vidita por donde andare
mas cuando salga la luna
cantare cantare
a mi tucuman querido
cantare cantare cantare
II
Si en algo nos paresemos
luna de la soledad
yo voy andando y cantando }bis
que es mi modo de alumbrar }
Con ezperanza o con pena
en los campos de acheral
yo he visto a la luna buena }bis
besando el cañaberal }

(estribillo)
Perdido en las......




[Luna tucumana chords][Luna tucumana cifra]
© LaCuerda.net · aviso legal · privacidad · es · en · pt · contacto