Acordes de Guitarra » A »Ases Falsos » Mi Ejército (Tab)

Mi Ejército
Ases Falsos

Letras, Acordes y Tabs para Guitarra, Bajo y Ukulele

  • F  Bbmaj7  F  C
    F Dm  Bbmaj7 C x2
    
    F
    Voy a tratar de esforzarme para en lo posible
                              Bbmaj7
    no mentirte más así que escucha
    de cerca
    
    F
    Te voy a usar y es probable que despúes
                                             Bbmaj7
    no volvamos nunca más a vernos así como ahora
    de cerca
    
    Gm                 Bb        Am       Ab
    Parece que fue ayer cuando creí en la lucha contra el mundo
    Gm                  C
    pero hoy se presenta la evidencia correcta
    
    
  • Amaj7(omit 5)   x 0 0 2 2 0
    Asus4(omit 5)   x 0 0 2 3 0
    D6add11(omit 5) x x 0 0 0 2
    G6 (omit 5)     x x 5 4 5 0
    Dmaj7           x 0 2 2 2 2
    Bmaj7           x 2 4 2 3 2
    Gmaj7           3 x 2 3 3 x
    Asus4           x 0 2 2 3 0
    A               x 0 2 2 2 0
    Em              0 2 2 0 0 0
    Gm6             3 x 2 3 3 x
    A/F#            2 x 2 2 2 x
    Dm/F            1 x 0 3 2 x
    Dsus/E          0 7 7 7 x x
    G#m(#5)         4 x x 4 5 x
    D/A             5 x 7 7 7 x
    Bb0             6 x x 6 5 x
    C#0             8 x x 9 8 x
    Eadd9           0 2 2 1 0 2
    
    
  • F - Bbmaj7 (x2)
    F - Dm - Bbmaj7 - C (x2)
    
    F
    Voy a tratar de esforzarme para en lo posible
                             Bbmaj7
    no mentirte más así que escucha
    de cerca
    
    F
    Te voy a usar y es probable que despúes
                                             Bbmaj7
    no volvamos nunca más a vernos así como ahora
    de cerca
    
    Gm                 Bbm6        Am       Ab
    Parece que fue ayer cuando creí en la lucha contra el mundo
    Gm                  C               (mantener DO entre silencio)
    pero hoy se presenta la evidencia correcta
    
    
  • Intro (0:11):
    |---------------------------------------------------------------------------
    |-3-2-------------------------------3-2-2---------2-3-------------------3---
    |-----3------0-2-3-3(x6)-3/10-8------------5--5--5-----1--1--1-3--3-3-5---3-
    |-------1~~~~-------------------1-1-----------------------------------------
    
    |-----------------------------------------------------
    |------3-2-2-------------------------5/7-5--3--2------
    |------------5--5--5-7-5-1--1--1-3-5------------------
    |-1--1-------------------------------------------1~~~~
    
    Verso (1:09):
    "De cerca..."
    |---------
    |-----3---
    |-3-5-----
    |-------3-
    
    "Pero hoy se presenta..."(1:23)
    |-------
    |-------
    |-0-2-3-
    |-------
    
    (1:29)
    |----------------------------------------------------
    |-----0/3-2-2----------2-3------------------3--------
    |--------------5--5--5-----1--1--1-3--3-3-5---3------
    |-1--1------------------------------------------1~~~~
    
    "Acotaré el espacio del impacto..." (1:53)
    |---------------------------------------------
  • +
    ¡Colabora con nosotros!
    Envíanos tu versión de esta canción

Letra de Mi Ejército
Voy a tratar de esforzarme para en lo posible
no mentirte más así que escucha
de cerca
Te voy a usar y es probable que despúes
no volvamos nunca más a vernos así como ahora
de cerca
Parece que fue ayer cuando creí en la lucha contra el mundo
pero hoy se presenta la evidencia correcta
Vamos a paso de hombre...cámbiame la cara
Me haré mujer y en mi calma venceré al hombre que
pretende siempre encaramarse
arriba
Acotaré el espacio del impacto y golpearé
usando la energía del planeta
Ya no tengo miedo de decirte que
el mundo es mi ejército
soy su comandante y a la vez
soy su primera línea
soy mi propia carne de cañón
y mi conspirador
Parece que fue ayer cuando creí en la lucha contra el mundo
pero hoy se presenta la evidencia correcta
Ya no tengo miedo de decirte que
el mundo es mi ejército
soy su comandante y a la vez
soy su primera línea
soy mi propia carne de cañón
y mi conspirador




[Mi Ejército chords][Mi Ejército cifra]
© LaCuerda.net · aviso legal · privacidad · es · en · pt · contacto