Acordes de Guitarra » A »Arturo Quinteros » Otoño en Mendoza (Tab)

Otoño en Mendoza
Arturo Quinteros

Letras, Acordes y Tabs para Guitarra, Bajo y Ukulele

  • e|-------------|-------2------|------0-0-----|-----------|------
    B|---2-2-------|-----3--3h2h0h|2----2---3h2h0|---3-----5-|------
    G|---2-2-------|2---2---------|1---1---------|-----------|------
    D|---2-2-------|4--4--0-4h2h0h|2--2---2-4h2h0|---4-----6-|------
    A|---4-4-0-2h4h|5-5-----------|0-0-----------|2----45----|-(12)-
    E|-0-----------|--------------|--------------|-----------|------
    
    e|-9h7--------5h4h2--|-------2------|------0-0------|------|
    B|----10h9h7h0-----5h|-----3--3h2h0h|2----2---3h2h0h|3--4--|
    G|-------------------|2---2---------|1---1----------|------|
    D|-------------------|4--4--0-4h2h0h|2--2---2-4h2h0h|3--4--|
    A|-------------------|5-5-----------|0-0------------|-2--3-|
    E|-------------------|--------------|---------------|------|
    
    e|0--7h9-10----|0---2h0-------|-------------|-------0-------|
    B|0---------2h3|---1--------2-|-5-----3-----|3-------3----0-|
    G|1--7---------|--2-------3---|----4--4--4h6|---4h2h1---1---|
    D|0--7---------|----2---4---2-|---4-4h4-----|--4------2-
  • +
    ¡Colabora con nosotros!
    Envíanos tu versión de esta canción



Video de Otoño en Mendoza
[]




[Otoño en Mendoza chords][Otoño en Mendoza cifra]
© LaCuerda.net · aviso legal · privacidad · es · en · pt · contacto