Acordes de Guitarra » A »Ariel Rot » Vagabundo (Tab)

Vagabundo
Ariel Rot

Letras, Acordes y Tabs para Guitarra, Bajo y Ukulele

  •           Ebdim7                      C#m7-Cm7-Bm7 E7
    e|--5-4-2-0-2---4-2-----------------------4-3-2----0--
    B|5---------1-------5-2-----------------2-5-4-3----0--
    G|----------2-----------4-2-------1-2-4---4-3-2----1--
    D|----------1-------------2---2-4---------6-5-4----0--
    A|----------------------------------------4-3-2----2--
    E|-------------------------------------------------0--
    
        Bm7  F#dim7 C#m7 F#7 B7 E9
    e|--2-5-2--5--4-7-4--2--2----------|
    B|--3-3-3--4--5-5-5--2--0--7-9-8-7-|
    G|--2-2-2--5--4-4-4--3--2--7-----7-|
    D|--4-4-4--4--6-6-6--2--1--8-----8-|
    A|--2-2-2-----4-4-4--4--2--7-----7-|
    E|-----------------2---------------|
    
    [ESTROFAS]
    
    A           C#m7  F#m7        C#m7
    Voy robando rosas que son para ti
    
  • +
    ¡Colabora con nosotros!
    Envíanos tu versión de esta canción

Letra de Vagabundo
[ESTROFAS]
Voy robando rosas que son para ti
como esas canciones que nunca te escribí
soy un vagabundo buscando un rayo de Sol
siempre arrastrando mi mundo sin saber a dónde voy.
Me siento en un banco, se aleja una señora
hace años que no me pregunta ya nadie la hora
pero en mi reloj el tiempo se hace eterno
mientras silbo una canción que casi no recuerdo.
Me queda mi guitarra, me queda mi sombrero
me queda la loca esperanza de empezar de nuevo
pero el sueño poco dura, la ciudad se vuelve oscura
llegó la hora de los fantasmas, llegó la hora de la locura.
[ESTRIBILLO]
Como un capitán extraviado y errabundo
vagando por el espacio en esta nave sin rumbo
entre estrellas y cometas vivo volando,
entre estrellas y cometas siempre viajando.
[ESTROFAS, mismos acordes]
Veo una luz encendida, ahí es donde quiero estar
una muchacha dormida, una cama, un hogar
sigo silbando bajito para que nadie me oiga
y mi cabeza se llena de viejas historias.
Pasaron terremotos, tormentas, huracanes,
mujeres que me amaron y tipos bacanes,
todo queda en mi memoria, nada se puede borrar
mejor una mala historia a que no tener nada que contar.
Me queda mi guitarra, me queda mi sombrero
me queda la loca esperanza de empezar de nuevo
pero el sueño poco dura, la ciudad se vuelve oscura
llegó la hora de los fantasmas, llegó la hora de la locura.
[ESTRIBILLO, mismos acordes]
Como un capitán extraviado y errabundo
vagando por el espacio en esta nave sin rumbo
entre estrellas y cometas vivo volando,
entre estrellas y cometas siempre viajando.




[Vagabundo chords][Vagabundo cifra]
© LaCuerda.net · aviso legal · privacidad · es · en · pt · contacto
DINAMICO