Acordes de Guitarra » A »Arena Hash » Es que sucede así (Tab)

Es que sucede así
Arena Hash

Letras, Acordes y Tabs para Guitarra, Bajo y Ukulele

  • A
    Despues de tiempo
        C#m
    me la encontre otra vez
       G
    estaba bella
            Bm
    como las estrellas
      A                    C#m
    habia desarrollado mas de lo que pense
       G Bm        D
    Hola que tal como te va
     C#m             F#m  E
    Que lindo cuerpo tienes vamos a pasear
         D          Bm      F#m  E
    Estaba facinado al verla caminar
    
    Punteo
    
    E|----------------------------------------------------------
    
  •       A
    Después de tiempo
         C#m
    Me la encontré otra vez
          G
    Estaba bella
          Bm
    Como las estrellas
      A                        C#m
    Había desarrollado más de lo que pensé
       G     Bm           D
    Hola que tal como te va
                     Bm               F#m  E
    Qué lindo cuerpo tienes vamos a pasear Oh oh
    D          Bm                F#m     E
    Estaba fascinado al verla caminar Oh oh
    
    
    
    Coro: A - Em - Bm - G (x2)
    
  •                  A
    me la encontre otra vez
                C#m
    estaba bella
       G
    como las estrellas
            Bm
    habia desarrollado mas de lo que pense
           A                         C#m
    Hola que tal como te va
       G      Bm
    Que lindo cuerpo tienes vamos a pasear
       D                 C#m             F#m  E
    Estaba facinado al verla caminar
       D        Bm               F#m  E
    
    Punteo
    
    E|-------------------------------------------------------
    B|---0-2-0-0-0---2-3-3-3-2-0-----0-2-0-0-0---2-3-3-3-2-0-
    
  •                A
     me la encontré otra vez
                 C#m
     estaba bella
    G
     como las estrellas
     Bm
     había desarrollado mas de lo que pensé
        A                      C#m
     Hola que tal como te va
    G          Bm
     Que lindo cuerpo tienes vamos a pasear
    D                 C#m             F#m    E
     Estaba facinado al verla caminar
    D           Bm               F#m   E
    
    Punteo
    
    E|--------------------------------------------------------------
    B|---0-2-2-0--0----2-3-3-3--3-2-0--0-2-2-0--0----2-3-3-3--3-2-0-
    
  • El comienzo de la letra no coincide exactamente con el 
    comienzo del bajo, sirve para que te des una referencia.
    Escucha la canción y te será más fácil.
    si encuentras errores enviame tu corrección al correo
    johnaqp82@latinmail.com
    
    INTRO:
    
    despues de tiempo...
    G|------------------------------|
    D|------------------------------|
    A|------------------------------| (2 VECES)
    E|-5---4---3---2----------------|
    
    que lindo cuerpo tienes...
    G|-------------------|-------------------|
    D|-------------------|-------------------|
    A|-5-4----4-4------4-|--0-2-0------------| (2 VECES)
    E|----7547---5-0-5---|-2------2-0-0457---|
    
    G|-----------------------------------------|
    D|-----------------------------------------|
    A|-0--0-0--0-----------2--2-2--2-----------| (2 VECES)
    E|-----------0--0-0--0-----------3--3-3--3-|
    
    
    ESTROFA1:
    
    se removieron...
    G|-----------------|-------------------|
    D|-----------------|-5-4----4-4--------|
    A|------57-----345-|----7547---7-5457--| (2 
  • +
    ¡Colabora con nosotros!
    Envíanos tu versión de esta canción
  • Tutorial
    HD
    Y es que sucede así - ARENA HASH (acordes)
    3:57
  • Tutorial
    HD
    Y es que sucede así - ARENA HASH (solos)
    0:52

Letra de Es que sucede así
Despues de tiempo
me la encontre otra vez
estaba bella
como las estrellas
habia desarrollado mas de lo que pense
Hola que tal como te va
Que lindo cuerpo tienes vamos a pasear
Estaba facinado al verla caminar
Punteo
Se removieron mis recuerdos de niñez
cuando en la acera linda estaba ella
jugando a las muñecas les daba de comer
Hola dije quieres jugar
Soy el mejor doctor de toda la ciudad
me dijo si me besas me dejo curar
Si en el tiempo pues nos soliamos ver
noches traviesas bajo la escalera
Eramos perversos nos sentiamos bien
Ahora el asunto es refrescar
todas aquellas cosas sin ser muy brutal
Cogi su bella mano y la empeze a besar Oh oh
Y es que sucede asi cuando una chica sensual
puede sentir la explocion de un volcan y el delirio
Si tu la sabes besar puede perder el control se olvida de su sitio
Repetir: Punteo
Y en el silencio ella bajo la mirada
No dijo nada nunca dijo nada
era como un sueño todo me salio bien
Oye mi amor que hermosa estas
Sigues con esa magica sensualidad
Las cosas no terminan si sabes actuar
Repetir: CORO
Repetir: Punteo
Despues de tiempo
me la encontre otra vez
estaba bella y me la lleve a pasear
Repetir: Punteo




[Es que sucede así chords][Es que sucede así cifra]
© LaCuerda.net · aviso legal · privacidad · es · en · pt · contacto
DINAMICO