Acordes de Guitarra » A »Ansia » Mi Vida Sigue Igual (Tab)

Mi Vida Sigue Igual
Ansia

Letras, Acordes y Tabs para Guitarra, Bajo y Ukulele

  • Intro 
    
    e|--------------------|
    B|--------------------|
    G|-----------66-77-99-|
    D|-77/10-66--66-77-99-|
    A|-77/10-66--44-55-77-|
    E|-55/8--44-----------|
    
    Sali a caminar,
    un poco sin pensar
    y me puse a fumar
    pensando en tu sonrisa.
    
    No me puedo olvidar
    de lo que fue tu amor
    y ahora pienso que
    estoy mucho mejor.
    
    Est.
    
    e|---------|
    B|---------|
    G|--77-99--|
    D|--77-99--|
    A|--55-77--|
    E|---------|
    
    Y ahora estoy cansado de esperar
    y me doy cuenta que mi vida sigue igual sin vos.
    
    Intro 
    
    Sali a caminar,
    un poco sin pensar
    y me puse a tomar
    pensando en tu sonrisa.
    
    No me puedo olvidar
    de lo que fue tu amor
    y ahora pienso que
    estoy mucho mejor.
    
    Est.
    
    Y ahora estoy cansado de esperar
    y me doy cuenta que mi vida sigue igual sin vos.
    
    Intro
    
    Solo
    
    e|--------------------------------|
    B|--------------------------------|
    G|---------9-9-7-6-7--7/11-7/11...|
    D|--7-7-11------------------------|
    A|--------------------------------|
    E|------------
  • +
    ¡Colabora con nosotros!
    Envíanos tu versión de esta canción






[Mi Vida Sigue Igual chords][Mi Vida Sigue Igual cifra]
© LaCuerda.net · aviso legal · privacidad · es · en · pt · contacto
DINAMICO