Acordes de Guitarra » A »Anima Sola » Espejo (Tab)

Espejo
Anima Sola

Letras, Acordes y Tabs para Guitarra, Bajo y Ukulele

  • Emadd9        C
    -------------------------------------------------------|
    ---------3---------------3-----------------------------|
    -------0---0-------------------------------------------|
    -----4-----------4-5-4-5---5-4-------------------------|
    ---1---------2-3---------------------------------------|
    -0-----------------------------------------------------|
     Emadd9        C                                       |
    -------------------------------------------------------|
    ---------3---------------3-----------------------------|
    -------0---0-------------------------------------------|
    -----4-----------4-5-4-5---5-4-------------------------|x2
    ---1---------2-3---------------------------------------|
    -0-----------------------------------------------------|
     Emadd9        C               D                       |
    -------------------------------------------------------|
    ---------3---------------3-------------3---------------|
    -------0---0-------------------------------------------|
    -----4-----------4-5-4-5---5-4---4-5-4---5-4-----------|
    ---1---------2-3---------------5-----------------------|
    
  • +
    ¡Colabora con nosotros!
    Envíanos tu versión de esta canción

Letra de Espejo
Cuando un secreto
Te quema en la voz
Inunda tu cabeza de falsa perfección
Obsesión enfermiza
En tu corazón
La vida se te escapa dentro de un baño
¿Cuál es la razón
De tan cruel obsesión?
Y no me vayas a decir
Que tu vida es mejor
Busca en tu cuerpo
Alguna razón
Para matar tu alma y mi ilusión
Dentro de mi puño
Está mi corazón
Y con él te hablo, escucha mi canción
¿Cuál es la razón
De tan cruel obsesión?
Y no me vayas a decir
Que tu vida es mejor
|x4
¿Cuál es la razón
De tan cruel obsesión?
Es la falsa perfección
Y no me vayas a decir
Que tu vida es mejor
(Ahora viene el solo de guitarra. La rítmica sigue los acordes
del punteo anterior al último estribillo)

Video de Espejo
[]




[Espejo chords][Espejo cifra]
© LaCuerda.net · aviso legal · privacidad · es · en · pt · contacto