Acordes de Guitarra » A »Angeles Negros » A tu recuerdo (Tab)

A tu recuerdo
Angeles Negros

Letras, Acordes y Tabs para Guitarra, Bajo y Ukulele

  •    intro. G-Em-Am-D7
    
    
        G      Em    Am   D7 
         Tu recuerdo hoy
        G     Em     Am   D7
         ha venido a mi,
        G     F#7     Bm     E7
         una gran emocion senti,
       Am            Am-Bbm-Bm-Cm           D7
         ¿por que fue,            si todo paso?.
    
        G         Em    Am  D7
         Desde el dia aquel
        G      Em     Am   D7
         nunca mas volvio,
        G      F#7       Bm         E7
         tu quiza no te acuerdes de mi,
              Am  D7             G   G7
         pero hoy en mi mente estas.
    
  • INTRODUCCION: LA-FA#-SIm-MI
    
    
        LA      FA#    SIm   MI 
         Tu recuerdo hoy
        LA      FA#    SIm   MI 
         ha venido a mi,
        LA     SOL#   DO#m     FA#
         una gran emocion senti,
        SIm            SIm-DOm-DO#m-REm           MI
         ¿por que fue,                 si todo paso?.
    
        LA      FA#    SIm   MI 
         Desde el dia aquel
        LA      FA#    SIm   MI 
         nunca mas volvio,
        LA     SOL#   DO#m     FA#
         tu quiza no te acuerdes de mi,
         SIm  MI                  LA   LA7
         pero hoy en mi mente estas.
    
  • INTRO: A   F#7   Bm    E
    
    
    
    e--9-10--9-12--------12--------12--------------
    B-10-10-10-10--12/14-----12/14-----14/12--10---
    G----------------------------------------------
    D----------------------------------------------
    A----------------------------------------------
    E----------------------------------------------
    
    
    A      F#7    Bm   E
    Tu recuerdo hoy
    A      F#7    Bm   E
    ha venido a mi,
    A     G#7   C#m     F#7
    una gran emoción sentí,
              Bm   Bm/Cm/C#m/Dm          E
    ¿por que fue,            si todo paso?.
    
  • e|--------7--8--7---10--7-10-7-10-7-10--7-------------------|
    B|-------8--8--8--------------------------10----------------|
    G|---7------------------------------------------------------|
    D|----------------------------------------------------------|   x2
    A|----------------------------------------------------------|
    E|----------------------------------------------------------|
    
    y luego va
    
    G      Em    
    Tu recuerdo hoy
                     Am             D7 
    
    e|---------------7-10--7-10-7-10-7-10--7----------------|
    B|------------------------------------------------------|
    G|------------------------------------------------------|
    D|------------------------------------------------------|   
    A|------------------------------------------------------|
    E|------------------------------------------------------|
    
    
  • e|------9----10----9----12-----12--
    b|-10-10---10---10--14-----14----14h12   2 x
    g|-------------------
    
    e|----12---12-------
    b|-14- 14----14h12--10--|
    g|--------------------    esta parte se toca casi  toda la cancion
    
    la otra guitarra es puro circulo de sol y claro lo puedes acompañar
    este es el solo del teclado
    solo:
    
    e|--------7--8--7---10--7-10-7-10-7-10--7-------------------|
    B|-------8--8--8--------------------------10----------------|
    G|---7------------------------------------------------------|
    D|----------------------------------------------------------|   x2
    A|----------------------------------------------------------|
    
    e|-10-12-10-12-10----------------10-8-7--------|
    B|----------------12-8-10-10--10--------10-8---|
    G|---------------------------------------------|  x2
    D|---------------------------------------------|
    A|---------------------------------------------|
    E|---------------------------------------------|
    
    e|-10-7-9-6-7-9-10-12-10-12-------8-10-8--8-8-8-8-------------
  • e ---9--10---9---12------12------12-----------------
    b --10--10--10---10---/14----/14-----12h14p12---10--
    g --------------------------------------------------
    
    
    e ---9--10---9---12------12-----12------------------
    b --10--10--10---11---/14----/14-----12h14p12---10--
    g --------------------------------------------------
    
    
    CANCION: PUEDEN HACER LOS RASGUEOS PERO AQUI TAMBIEN LES DEJO UNOS ARPEOS
    QUE QUEDAN MUY BIEN
    
    
                Tu    recuerdo    hoy
    
        LA            FA            SI                   MI7
    e ---9----9--------9-----9-------9-----.   .-----12-----12-------------------
    b --10------10----10-------10----9-----.   .-/14----/14-----12h14p12-----10--
    g ---9--9---------11--11---------9--9--.   .---------------------------------
    
  • ITRODUCCION: 
    
           La      Fa#    Sim       Mi 
    G-|-------I------I------I---------I
    D-|-7--7--I------I-9--9-I-----697-I = X 2
    A-|-------I-9--9-I------I-7-7-----I
    E-|-------I------I------I---------I
    
    Tu recuerdo hoy...........
           La      Fa#    Sim       Mi 
    G-|-------I------I------I---------I
    D-|-7--7--I------I-9--9-I-----697-I = X 2
    A-|-------I-9--9-I------I-7-7-----I
    E-|-------I------I------I---------I
    
    
    una gran emocion senti......
           La      Sol#        Do#m   Fa#    Sim  
    G-|--------I----------I--------I---11-I-------I
    D-|-7--7-0-I----------I-11--11-I------I-9--99-I
    A-|--------I-11--11-0-I--------I-9----I-------I
    E-|--------I----------I--------I------I-------I
    
      Sim-Dom-Do#m-Rem       Mi
    ---------------------I-------I
    -9-10-11-12----12----I---7---I   
    -----------------7-7-I-------I
    ---------------------I-------I
    
    
    desde el dia aquel...........
          La      Fa#    Sim       Mi 
    G-|-------I-------I-------I---------I
    D-|-7--7--I-------I-9
  • +
    ¡Colabora con nosotros!
    Envíanos tu versión de esta canción

Letra de A tu recuerdo
Tu recuerdo hoy
ha venido a mi,
una gran emocion senti,
¿por que fue, si todo paso?.
Desde el dia aquel
nunca mas volvio,
tu quiza no te acuerdes de mi,
pero hoy en mi mente estas.
No te olvidare
aunque hoy enamorado de otra este
y te llevare aqui,
en un rinconcito de mi corazon.
En mi vida siempre habra,
un minuto para ti,
no te olvidare por que tu
mi gran recuerdo seras.
No te olvidare......etc.
cual quier duda sobre los acordes escribanme o vean las listas de acordes del atame.




[A tu recuerdo chords][A tu recuerdo cifra]
© LaCuerda.net · aviso legal · privacidad · es · en · pt · contacto