Acordes de Guitarra » A »Angeles del Infierno » Si tu no estás aquí (Tab)

Si tu no estás aquí
Angeles del Infierno

Letras, Acordes y Tabs para Guitarra, Bajo y Ukulele

  • intro E-C-D-B-A-G(teclado)
           E
    solo los dos
           C
    el mismo par
        G            D
    un trago por terminar
          E              C
    una mirada en la oscuridad
     G            D
    y una hasta mañana 
    
    C               D
    solo un momento mas
    E              C
    solo un minuto mas
    C              
    cuando tu te vas
        D           E
    ya nada es igual
    
  • bueno los acordes son los mismos que las demas transcripciones,
    sin ofender creo que mi solo es mas parecido al de la version
    original, disfrutenlo!
    
    Solo
    E|--------8-7---------8-7----8-7----8-7----8-7--|
    B|------8-----8-----8------8------8------8-----8|
    G|----------------------------------------------|
    D|----------------------------------------------|
    A|----------------------------------------------|
    E|----------------------------------------------|
    
    
    E|-----------------------------|
    B|---7-8-9---7/----10---8---7--|
    G|-7-------7-----7----7---7----|
    D|-----------------------------|
    A|-----------------------------|
    E|-----------------------------|
    
    
    E|----------------------------------------------------------|
    B|-------------------------------------10--8--7--7-8-7--5~~-|
    G|----4-5--4-5~~---4-5--4-5--5b7-----7---7---7--------------|
    D|--5----------------------------7~~------------------------|
    A|-5--------------------------------------------------------|
    E|-------------------------------
  • C               D
    solo un momento mas
    E              C
    solo un minuto mas
    C              
    cuando tu te vas
        D           E
    ya nada es igual
    
    
    (subele al distor)
    C                E     C        D
    si tu no estas aqui ohhhhh   ohhhhh
    D                E     C        D    D
    si tu no estas aqui ohhhhh   ohhhhh
     
    
        E            C
    necesito oir tu voz
        G         D
    
  • bueno los acordes son los mismos que las demas transcripciones,
    sin ofender creo que mi solo es mas parecido al de la version 
    original, disfrutenlo!
    
    Solo (Mezcla Distor y Delay)                                      
    E|-----------------------------------------------|
    B|-----13-12-------------13-12--13-12--13-12-----|
    G|-9/12-----12~~-----9/12-----12-----12-----12~~-|
    D|-----------------------------------------------|
    A|-----------------------------------------------|
    E|-----------------------------------------------|
    
    
    E|--------------------------------------------------|
    B|----7-8-10---7-----10-----8----7-------13-12------|
    G|-7/9--------7---pm9---pm9---9pm----9/12------12~~-|
    D|--------------------------------------------------|
    A|--------------------------------------------------|
    E|--------------------------------------------------|
    
    
    E|----------------------------------------------------------|
    B|-------------------------------------10--8--7--7-8-7--5~~-|
    G
  • intro E-C-D-B-A-G(teclado)
    SO  LO  los DOS
    Do    do   re   mi
    EL  MIS MO PAR
    Do    do   re   mi
    UN  DRA GON POR TER  MI   NAR
    Do    do     mi   fa     mi     do     re
    U   NA MI RA DA
    Do  do  mi  fa    mi
    EN LA OS CU RI DAD
    Do  do   mi  fa   mi do
    Y  + U    NA AS TA MA ÑA NA
    Do+do    mi   fa    mi  do   re    do
    SO LO UN  MO MEN TO  MÁS
    Do  do   mi   fa     mi     do    re
    SO LO  UN  MI NU     TO MÁS
    do do    mi     fa   sol      mi   re
    CUAN DO TU TE VAS
    do        do      mi  re do
    YA NA DA  ES   I   GUAL
    Do   do  mi    fa   mi    do
    SI TU NO ES TA A QUI
    do  do  si    la  sol   la si
    OH OH OH OH
    do   do   si  la
    OH OH OH OH
    do   do    si  la
    SI TU NO ES TA A QUI
    do  do  si    la  sol   la si
    OH OH OH OH
    do   do     si  la
    OH OH OH OH
    do    do    si  la
    NE SE SI TO  OIR TU VOZ
    Do  do  mi fa    mi   do   re
    NE SE SI TO TU CA LOR
    Do  do  mi  fa  mi  do  re
    SI TU  PU DIE  RA ES TAR A QUI
    Do do  mi   fa    sol    fa mi      re do
    NO SA VES CUAN TO DA RIA YO
    Do  do   mi    fa          mi
  • +
    ¡Colabora con nosotros!
    Envíanos tu versión de esta canción

Letra de Si tu no estás aquí
el mismo par
un trago por terminar
una mirada en la oscuridad
y una hasta mañana
cuando tu te vas
ya nada es igual
(subele al distor)
si tu no estas aqui ohhhhh ohhhhh
si tu no estas aqui ohhhhh ohhhhh

necesito oir tu voz
necesito tu calor
si tu pudieras estar aqui
no sabes cuanto daria yo
las horas llegan y se van
en sueños te puedo olvidar
te deseo mas cruzando la ciudad
si tu no estas aqui ohhhhh ohhhhh
si tu no estas aqui ohhhhh ohhhhh

cuando tu te vas
ya nada es igual
si tu no estas aqui ohhhhh ohhhhh
si tu no estas aqui ohhhhh ohhhhh

ohhhhhhh ohhhhhhhh ohhhhhhh ohhhhhh
ohhhhhhh ohhhhhhhh ohhhhhhh ohhhhhh




[Si tu no estás aquí chords][Si tu no estás aquí cifra]
© LaCuerda.net · aviso legal · privacidad · es · en · pt · contacto