Acordes de Guitarra » A »Angel Parra » Canción de amor (Tab)

Canción de amor
Angel Parra

Letras, Acordes y Tabs para Guitarra, Bajo y Ukulele

  •          MIm            DO
    Puedes matarme si quieres
        RE              SOL
    Mi amor no lo matarás
          FA                MIm
    Tengo la esperanza puesta
             FA           SI7
    En volverte a conquistar
    
           MIm            DO
    Que una vez te diste entera
         SI7            MIm
    Nunca lo podré olvidar
    SIm-MIm-SIm-MIm-SIm-MIm
    Amor, amor, amor
    
    II
    Puedes quitarme el aire
    Que preciso pa´ vivir
    Pero no podrás quitarme
    
  • e----11--10--11--13--10-----10-----|--11--10--11--13--10------10------|
    B----------------------------------|----------------------------------|
    G------------------------0------0--|-----------------------0------0---|
    D----------------------------------|----------------------------------|
    A--------------------10------------|------------------10--------------|
    E----8-----------------------------|---8------------------------------|
        DOm              SOLm             DOm             SOLm
    
    
    e------------------------3--------|--2--3--3-2--3---3--|
    B---4--3--4--6--3-----------------|-----------------3--|
    G-------------------3---------3---|--2--------------3--|
    D---------------------------------|-----------------5--|
    A---3-----------------------------|-----------------5--|
    E---------------3-----------------|-----------------3--|
       DOm         SOLm                 RE             SOLm
    
    
    
    e----------3--|---------3---|
    
  • +
    ¡Colabora con nosotros!
    Envíanos tu versión de esta canción

Letra de Canción de amor
Puedes matarme si quieres
Mi amor no lo matarás
Tengo la esperanza puesta
En volverte a conquistar
Que una vez te diste entera
Nunca lo podré olvidar
Amor, amor, amor
II
Puedes quitarme el aire
Que preciso pa´ vivir
Pero no podrás quitarme
La fuerza que nació en mí
Cuando mujer, cuerpo y alma
Te diste en el mes de abril
Amor, amor, amor
III
Quítame la cordillera
Quítame también el mar
Pero no podrás quitarme
Que te quiera siempre más
Lo que entre dos se ha sembrado
Entre dos se ha de cuidar
Amor, amor, amor
La introducción me ha resultado dificil de sacar,
la mandare una vez que lo logre.
Esta transcripción la dedico con a mi amor Angela
y a nuestros momentos maravillosos.




[Canción de amor chords][Canción de amor cifra]
© LaCuerda.net · aviso legal · privacidad · es · en · pt · contacto
DINAMICO