Acordes de Guitarra » A »Andy y Lucas » Tanto la quería (Tab)

Tanto la quería
Andy y Lucas

Letras, Acordes y Tabs para Guitarra, Bajo y Ukulele

  •       LA                 RE                      MI 
       1-¿Por qúe eres tan hermosa y a la vez tan dificil?
          LA                 RE                    MI 
    ¿por qué la vida pasa y pasa y te quiero a mi vera?
            SIm                                  MI 
    si me trataste como a un juguete sucio y abandonado
            SIm                                    MI 
    si no comprendes que el amar es algo más que besarnos.
    
      Envidio a todo aquel que el amor ha encontrado,
    
    que lo mio no es ir de flor en flor, 
    
    que de eso ya me he cansado, solo quería adornar
    
    las noches con tu cara morena
    
    y decirte que  hay corazones que no huyen de la tormenta.
                  LA 
      ESTRIBILLO- A  veces LA miro y lloro y lloro
    
  • e|------------------------------------------5---------------------------|
    B|------5..--3/2--------------------------5---5.---3/2------------------|
    G|-4/6.----------4/2-4/6------------2-4/6--------------4/2-4/6--4/6-4.--|
    D|-----------------------4-2.---2/4-------------------------------------|
    A|----------------------------------------------------------------------|
    E|----------------------------------------------------------------------|
    
              A               D                      E
    ¿Por qúe eres tan hermosa y a la vez tan dificil?
          A               D                    E
    ¿por qué la vida pasa y pasa y te quiero a mi vera?
            Bm                                  E
    si me trataste como a un juguete sucio y abandonado
            Bm                                   E
    si no comprendes que el amar es algo más que besarnos.
        A               D                    E
    Envidio a todo aquel que el amor ha encontrado,
    A                   D                   
    que lo mio no es ir de flor en flor, 
                            E
    
  • A#                  D#            F
    Porque eres tan hermosa y a la vez tan difícil.
    A#                  D#            F
    Porque la vida pasa y pasa y te quiero a mi vera,
          Cm                              F
    si me trataste como un juguete sucio y abandonado,
          Cm                              F
    si no comprendes que el amar es algo más que besarnos,
    A#                  D#            F
    Envidio a todo aquel que el amor a encontrado.
    A#                  D#            F
    Que lo mio no es de ir de flor en flor, que de eso ya me he cansado.
          Cm                              F
    Sólo queria adornar la noches con tu cara morena
          Cm                              F
    y decirte que hay corazones que no huyen de la tormenta.
    
    (Pre-Coro)
    A#
    A veces la miro y lloro y lloro,
    
  •            LA#               RE#                    FA
    verso 1  ¿Por qúe eres tan hermosa y a la vez tan dificil?
          LA#               RE#                    FA
    ¿por qué la vida pasa y pasa y te quiero a mi vera?
            DOm                                  FA
    si me trataste como a un juguete sucio y abandonado
            DOm                                   FA
    si no comprendes que el amar es algo más que besarnos.
        LA#               RE#                    FA
      Envidio a todo aquel que el amor ha encontrado,
    LA#                   RE#                   
    que lo mio no es ir de flor en flor, 
                            FA
    que de eso ya me he cansado,
    DOm
    solo quería adornar
                            FA
    las noches con tu cara morena
       DOm                                            FA
    y decirte que  hay corazones que no huyen de la tormenta.
    
  •                                                                                                  MI
    1|------------|--------1---|---------------------------|------------|--------1--|-----------|----------|
    2|-------1----|------4-----|---------6----6----6-------|--------6---|------4----|-----------|----------|
    3|-----3---3--|----3-------|-------5----5----5----5----|------5-----|----3------|--------3--|--------2-|
    4|---3--------|--1---------|-----3----3----3---------3-|----3-------|--1--------|------3----|------3---|
    5|-1----------|------------|---------------------------|--5---------|-----------|----3------|----3-----|
    6|------------|------------|--5------------------------|------------|-----------|--1--------|--1-------|
    
    Verso I: Arpegio
    
    
    1|------------|--------1--|-----------------1--|-----------|--------1--|---------------|
    2|-------1----|------4----|---------------1----|-------1---|------4----|--------1------|
    3|-----3---3--|----3------|--------3--1--------|-----3---3-|----3------|----------3--2-|
    4|---3--------|--1--------|------3------3------|---3-------|--1--------|------3--------|
    5|-1----------|-----------|----3---------------|-1---------|-----------|----3----------|
    6|------------|-----------|--1-----------------|-----------|-----------|--1----------1-|
    
                 DOm
    1|--------------------------|-------------|--------------------------|----------------|
    
  • De Miauri
    Intro
    E|----|---|---|--|---|---|-------|
    A|--1-|-6-|-0-|--|-1-|-6-|-8-/0--|
    D|----|---|---|--|---|---|-------|
    G|----|---|---|--|---|---|-------|
    
    Envidio a todo aquel
    E|-----|---|-----|-1-11--|
    A|-6/1-|-1-|-6-6-|-------|
    D|-----|---|-----|-------|
    G|-----|---|-----|-------|
    
    que lo mio
    E|----|-----|-1-11--|
    A|--1-|-6-6-|-------|
    D|----|-----|-------|
    G|----|-----|-------|
    
    solo queria      y decirte
    E|-------|------|------|-----------|
    A|--3-33-|------|-3-33-|-----------|
    D|-------|-3-33-|------|-3/5-3-33--|
    G|-------|------|------|-----------|
    
    A veces la miro
    E|--------|-------|---------|-11-11-----|
    A|--11-11-|-55-55-|-4-33-33-|------1-3--|
    D|--------|-------|---------|-----------|
    G|--------|-------|---------|-----------|
    
    Porque eres la cuna
    E|--------|---------|---------|-11-11-----------|
    A|--11-11-|-3-55-55-|-4-33-33-|------3-------5--|
    D|--------|---------|---------|-------3-3h5-5---|
    G|--------|---------|---------|-----------------|
    
    Tanto la queria
    E|-----|----|--
  • +
    ¡Colabora con nosotros!
    Envíanos tu versión de esta canción

Letra de Tanto la quería
1-¿Por qúe eres tan hermosa y a la vez tan dificil?
¿por qué la vida pasa y pasa y te quiero a mi vera?
si me trataste como a un juguete sucio y abandonado
si no comprendes que el amar es algo más que besarnos.
Envidio a todo aquel que el amor ha encontrado,
que lo mio no es ir de flor en flor,
que de eso ya me he cansado, solo quería adornar
las noches con tu cara morena
y decirte que hay corazones que no huyen de la tormenta.
pensando que pudo y no fue al final
ver a las nubes tapar las estrellas, estrellas
que sólo te quieren mirar.
Porque eres la cuna que mece sin nada
porque eres la lluvia que no has de mojar
sin ti yo veía tardes de historias
historias que nunca quise ver acabar.
( Tanto la quería, tanto que yo
por ella moría, eso bien lo sabe Dios.
Ella es la reina de mi inspiración
por la que yo sufro, la musa de mi amor)
2- Busco en el recuerdo y no encuentro mi pasado
las campanas y más campanas
que mi alma ha escuchado.
Tu sabes bien que a la última frontera
te hubiera llevado
que los senderos de la vida hay que cogerlos
con dos manos.
...(Tanto la quería...) (bis)




[Tanto la quería chords][Tanto la quería cifra]
© LaCuerda.net · aviso legal · privacidad · es · en · pt · contacto