Acordes de Guitarra » A »Andrés Cepeda » No es casual (Tab)

No es casual
Andrés Cepeda

Letras, Acordes y Tabs para Guitarra, Bajo y Ukulele

  •  Intro    Dm9   G7add13   Em7*   A7/5     (2)
    
                                                       Dm9     X35360
                                                   G7add13     3X345X
                                                      Em7*     075780
                                                     A7/5+     5X566X
    
          Dm9             G7add13            Cmaj7  Bb7  A7
    Si tuviera más horas la noche yo te las daría,
        Dm9                  G7add13          Gm7    C9    C9-
    pero vengo corriendo y de paso por esta ciudad,
            Fmaj7               Bb9/5-            Em7*
    siempre pasa lo mismo el momento no es el indicado,
                 A7/5              Dm7
    apenas hay tiempo para conocernos,                 C9      X3233X
               G7add13          Cmaj7  Bb7  A7       C9-      X3232X
    para presentarnos, para conversar.             Bb9/5-      65655X
    
    
           Dm9               G7add13             Cmaj7  Bb7  A7
    
  • E|------------------5p3-----------------------6p5--------------------------
    B|-----6-5------5p3----3------------8-----6p5----5-------------------------
    G|-----5-5------4-------4--------7--------6--------6-----------------------
    D|---7-------------------------9-------------------------------------------
    A|-5-------------------------7---------------------------------------------
    E|--------------3-------------------------5--------------------------------
    
    E|-------5---------5p3------------------------6p5--------------------------
    B|-5-6h----6----5p3----3------------8----6p-------5------------------------
    G|-5------------4--------4--------7------6---------6-----------------------
    D|-----------------------------9-------------------------------------------
    A|-5-------------------------7---------------------------------------------
    E|--------------3------------------------5---------------------------------
    
    
    Toda la cancion excepto los coros se toca arpegeando
    Suena mucho mejor si hacen todos los acordes con cejilla.
    
    
    
    
  • +
    ¡Colabora con nosotros!
    Envíanos tu versión de esta canción

Letra de No es casual
Si tuviera más horas la noche yo te las daría,
pero vengo corriendo y de paso por esta ciudad,
siempre pasa lo mismo el momento no es el indicado,
para presentarnos, para conversar. Bb9/5- 65655X
Si no fuera que lo único abierto es donde me quedo,
qué placer me daría invitarte y llevarte a cenar,
tengo miedo de ser muy formales y nunca enterarme,
si estaba marcado que aquí encontraría,
la mujer de mi vida el amor de verdad.
Dime si no sientes lo mismo que siento,
si no te da curiosidad,
encontrarnos en este momento,
no es casual, no es casual.
Yo que nada tengo de supersticioso,
creo que al verte empecé a dudar,
encontrarnos en este momento no es casual.
Hay quien dice que las coincidencias no existen ni pasan,
que llegamos al mundo siguiendo un manual, un guion,
que la gente que nos encontramos, son gente que viene
de vidas pasadas, quién sabe si somos,
amantes dichosos de un tiempo anterior.
Encontrarnos en este momento no es casua-lidad,




[No es casual chords][No es casual cifra]
© LaCuerda.net · aviso legal · privacidad · es · en · pt · contacto