Acordes de Guitarra » A »Andrés Cepeda » Enfermedad de tí (Tab)

Enfermedad de tí
Andrés Cepeda

  • Letra y Acordes
             G (20-21-23)
    Yo tengo una enfermedad de ti
             G (20-21-23)
    Me hace daño todo si no estas
       Bm7                    E7
    Necesito compañía de tu amor
                  Am
    Yo tengo un fanatismo ciego corazón
    Una necesidad una dependencia loca
            Em/G                  D
    De tus cosas y tú forma de mirar
    
    (igual)
    
    Yo tengo una enfermedad de ti
    Mi voluntad no puede resistir
    No decido si me quedo si me voy
    Se que al final tu no eras para mi
    Pero es que el alma no sabe elegir
             Em                      Dm7-G7
    
  • Letra y Acordes
    G
    Yo tengo una enfermedad de ti
     G
    Me hace daño todo si no estas
       Bm                    Esus4 E
    Necesito compañía de tu amor
                  Am7
    Yo tengo un fanatismo ciego corazón
    Em7
    Una necesidad una dependencia loca
            Dsus4                 D
    De tus cosas y tú forma de mirar
    
    (igual)
    
    Yo tengo una enfermedad de ti
    Mi voluntad no puede resistir
    No decido si me quedo si me voy
    Se que al final tu no eras para mi
    Pero es que el alma no sabe elegir
    
  • Tablatura
    Hola  esta es la original   y es para personas que
     no me creenque sako las canciones a oido  puff pobrecitos
    de Andres Cepeda
      x david Illescas  ya que  mamera....
    dandresillescor@hotmail.com
    INTRO
    e ----------------------------
    b -0-------0-------1---------3
    g -0----0------0--------0-----
    d ----------------------------
    a ----------------------------
    e -3--------------------------
    
    e -----------------
    b -1-------1-------
    g -0----0------(2)-
    d -2---------------
    a -----------------
    e -3---------------
    
    yo tengo una enfermedad de ti
    Me hace daño todo si no estas
    
    e ----------------------------X2
    b -0-------0-------1---------3
    g -0----0------0--------0-----
    d ----------------------------
    a ----------------------------
    e -3--------------------------
    
    Necesito compañía de tu amor
    
    e -----------------0------------------------------------
    b ---------3-------------3-------------3---0----------0-
    g ------1------1-----------------------1---1-------1----
    d -2--------------------------------2-
  • Tablatura
    E---------------------------------------------------
    B-0-----0-----1-----3----1-----3--3-----------------
    G-0-----0-----0-----0----0-----0--2-----------------
    D----0-----0-----0----------2-----0-----------------
    A------------------------3-----3--2-----------------
    E-3-----3-----3-----3-------------------------------
    
    
    Verso
    
    Yo tengo una enfermedad de ti  me hace daño todo si no estas
    
    E-----------------------------------------------------
    B--0-----0-----1-----3---------0-----0-----1-----3----
    G--0-----0-----0-----0---------0-----0-----0-----0----
    D-----0-----0-----0---------------0-----0-----0-------
    A-----------------------------------------------------
    E--3-----3-----3-----3---------3-----3-----3-----3----
    
    Necesito compañía de tu amor
    
  • +
    ¡Colabora con nosotros!
    Envíanos tu versión de esta canción
  • Tutorial
    HD
    Enfermedad De Ti (Tutorial)
    por Andrés Cepeda
    11:38

Letra de Enfermedad de tí
Yo tengo una enfermedad de ti
Me hace daño todo si no estas
Necesito compañía de tu amor
Yo tengo un fanatismo ciego corazón
Una necesidad una dependencia loca
De tus cosas y tú forma de mirar
(igual)
Yo tengo una enfermedad de ti
Mi voluntad no puede resistir
No decido si me quedo si me voy
Se que al final tu no eras para mi
Pero es que el alma no sabe elegir
Perdí la brújula no se ni a donde voy
Este amor es un juego
Pero yo me lo he tomado muy en serio
Y ya no hay remedio
Porque yo me he vuelto ciego
Y voy prendido de tu pelo a donde vayas corazón
A donde vayas
Yo se que nada voy a conseguir
En fin que solo se trata de mí
De tu lado se que nada pasara
Tu siempre vuelas yo me quedo aquí
Las cosas linda se demoran
Yo lo se por eso te voy a esperar
Este amor es un juego
Pero yo me lo he tomado muy en serio
Y ya no hay remedio
Porque yo me he vuelto ciego
Y voy prendido de tu pelo a donde vayas corazón
Este amo es un juego
Pero yo me lo he tomado muy en serio
Y ya no hay remedio
Porque yo me he vuelto ciego
Y voy prendido de tu pelo a donde vayas corazón
A donde vayas
Este amor es un juego...(2)
Esta es una muy buena rola. Saludos en Bogota a todos los admiradores
de la musica de Cepeda. Un saludo Nati!



© LaCuerda.net · aviso legal · privacidad · contacto