Acordes de Guitarra » A »Andrés Cepeda » El carpintero (Tab)

El carpintero
Andrés Cepeda

Letras, Acordes y Tabs para Guitarra, Bajo y Ukulele

  • ACORDE DE F#m            ACORDE DE C#7
    M------------------  M-------------------
    B-----2-----2---2--  B------5-----5------
    G---2-----2--------  G----3-----3-----3--
    D------------------  D-------------------
    A-------5-----4----  A--------5-----4----
    E--2---------------  M-4-----------------
    
       F#m                                           C#7
    Yo tuve un amor que en mi corazon traza marcas negras
                                                 F#m
    y de la viruta que alli quedó nacieron mis penas(bis)
    
                                         C#7
    cepillo para pulir angustias de mi alma
                                                F#m
    serrucho para cortar amor que duele y que daña(bis)
    
    12-15-14-17-14-15-12
    22-25-24-23-22-(22 Y 12)-22-15-14-12-11-14
    
  • e------------------------------------------------
    B------------------------------------------------
    G------------------------------------------------
    D--------0---------0------------0----------------
    A----0-4---4---0-4---4------0-4---4--4--2--------
    E--2---------2---------2--4---------------5--4--2
    
       F#m                                           C1
    Yo tuve un amor que en mi corazon traza marcas negras
                                                 F#m
    y de la viruta que alli quedó nacieron mis penas(bis)
    
                                         C1
    cepillo para pulir angustias de mi alma
                                                F#m
    serrucho para cortar amor que duele y que daña(bis)
    
    Solo:
    
    e------5-4-7-4-5---------------------5-4-----4
    
  •     F#m                                              C#7
    Yo tuve un amor que en mi corazón trazo marcas negras, y de la viruta que
                               F#m
    Ahí quedo nacieron mis penas. (X2)
    
    
        F#m                                C#7
    Cepillo para pulir angustias de mi alma, serrucho para cortar amor que
                    F#m
    Duele y que daña. (X2)
    
    
    
    Solo: (Guitarra) (Riff #2)
    
    
        F#m                                    C#7
    Carpintero de tu piel, ebanista de tu aliento, mi martillo y mi cincel,
                        F#m
    Van labrando mi lamento, las rumbas en mi taller, mis amigos mi
    
  •   F#m                    C#7
    e----(2)--------(2)------|----(6)-----------(6)-------|
    B--------2-------2----2--|-----6--(6)---(6)--6-----2--|
    G-----2-(2)---2------(2)-|---------4-----4--------(4)-|
    D------------------------|----------------------------|
    A----------5--------4----|--4---------5---------4-----|
    E--2---------------------|----------------------------|
    
    
    
    
    INTRO:
    
    
       F#m                                            C#7
    e-----------------------|------------------------|----4-----------------|
    B--------2-------2----2-|-------2--------2-----2-|-------6--------6---6-|
    G-----2-------2---------|----2--------2----------|-------------4--------|
    D-----------------------|------------------------|----------------------|
    A----------5--------4---|----------5--------4----|-4--------5-------4---|
    
  • +
    ¡Colabora con nosotros!
    Envíanos tu versión de esta canción

Letra de El carpintero
Yo tuve un amor que en mi corazon traza marcas negras
y de la viruta que alli quedó nacieron mis penas(bis)
cepillo para pulir angustias de mi alma
serrucho para cortar amor que duele y que daña(bis)
12-15-14-17-14-15-12
22-25-24-23-22-(22 Y 12)-22-15-14-12-11-14
11-12-14-12-11-14-12-11
10-11-12-13-34-22-11-14-12-11-14-12
carpintero de tu piel ebanista de tu aliento
mi martillo y mi cincel van labrando mi lamento
la rumba es en mi taller mis amigos mi herramienta
donde estará mi mujer mi madera y la experiencia
ay San Pedro amparalo......ay San Pedro amparalo....




[El carpintero chords][El carpintero cifra]
© LaCuerda.net · aviso legal · privacidad · es · en · pt · contacto