Acordes de Guitarra » A »Andrés Calamaro » Media Verónica (Tab)

Media Verónica
Andrés Calamaro

Letras, Acordes y Tabs para Guitarra, Bajo y Ukulele

  • Am                   C
       Media Verónica despierta
                  F
    le molestó la luna
                    C        G
    por la ventana abierta.
    
    Am                         C
      Llegó una carta desde el frente;
                  F
    el cántaro se rompe
                 C       G
    y se secó la fuente.
    
         Am                          C
    Va a decidir qué hacer cuando despierte del todo
      F
    y borrar con la mano
            C        G          Am
    lo que ayer escribió con el codo,
    
  • LAm                     DO
         Media Veronica despierta
                  FA                     DO      SOL/SI
    le molesto la luna por la ventana abierta
    LAm                              DO
         llego una carta desde el frente
                   FA                  DO      SOL/SI
    el cantaro se rompe y se seco la fuente
    
           LAm
    Va a decidir que hacer
               DO
    cuando despierte del todo
       FA
    y borrar con la mano
           DO        SOL/SI      LAm
    lo que ayer escribió con el codo
    
              FA
    Habra que ver,
    
  • Intro: Am
    
    Estrofa:
    
    Am                    C
       Media verónica despierta
                  F                     C     G/B
    le molesto la luna por la ventana abierta
    Am                            C
       Llega una carta desde el frente
                  F                     C    G/B
    El cántaro se rompe y se seco la fuente
    
           Am
    Va a decidir que hace
                C
    Cuando despierte del todo
      F
    Y borrar con la mano
              C      G/B         Am
    
  • Verso:
       Media Veronica despierta...
    G|-------------------------------------------------|
    D|-------------------------------------------------|
    A|-------------------------------------------------|
    E|-5--0-5-7-8-5^8^5-1--1-3-5-8-8-7-7-5-------------|
    
       Llego unas carta desde el frente...
    G|-------------------------------------------------|
    D|-------------------------------------------------|
    A|-------------------------------------------------|
    E|-5--0-5-7-8-5^8^5-1--1-3-5-8-8-7-7-5-------------|
    
       Va a decidir que hacer...
    G|-------------------------------------------------|
    D|-------------------------------------------------|
    A|-------------------------------------------------|
    E|-5--0-5-7-8-5^8^5-1--1-3-5-8-8-7-7-5-------------|
    
    Estribillo:
       Habra que ver...
    G|-------------------------------------------------------|
    D|-------------------------------------------------------|
    A|-------------------------------------------------------|
    E|-5--1--1-3--3--8-8-7-7-5-0-5-7-8-8/10/8-7-0-
  • +
    ¡Colabora con nosotros!
    Envíanos tu versión de esta canción

Letra de Media Verónica
Media Verónica despierta
le molestó la luna
por la ventana abierta.
Llegó una carta desde el frente;
el cántaro se rompe
y se secó la fuente.
Va a decidir qué hacer cuando despierte del todo
y borrar con la mano
lo que ayer escribió con el codo,
habrá que ver
si la crónica Verónica reacciona,
la Verónica mitad
tiene muy poca maldad
pero está cansada de esperar...
Media Verónica está rota
no tiene muchos años
pero le hicieron daño.
Rompió una lanza por la risa,
pero no tiene prisa
y se ríe muy poco.
No va a saber qué hacer cuando no sople más viento,
no sabe distinguir
el amor de cualquier sentimiento.
Quiere vivir
una vida diferente cada día;
está en la flor de la edad
pero está cansada de esperar...
En la ventana hay una nota:
el pájaro no vuela
tiene las alas rotas.
Media Verónica lamenta
que el tiempo se consume
y lo demás no cuenta.
La vida es una cárcel con las puertas abiertas,
Verónica escribió
en la pared con las tripas revueltas.
Nada que ver,
no habrá flores en la tumba del pasado.
dice siempre la verdad
pero está cansada de esperar...




[Media Verónica chords][Media Verónica cifra]
© LaCuerda.net · aviso legal · privacidad · es · en · pt · contacto