Acordes de Guitarra » A »Andrés Calamaro » Algo contigo (Tab)

Algo contigo
Andrés Calamaro

Letras, Acordes y Tabs para Guitarra, Bajo y Ukulele

  • D / Dm / A /F# / D / Dm / E / A / E
    
         Amaj7
    Hace falta que te diga
           C#7                      F#m/Em7/A7
    que me muero por tener algo contigo
            D
    Es que no te has dado cuenta
           Em           F#7           Bm
    de lo mucho que me cuesta ser tu amigo
           D                    Dm
    yo no puedo acercarme a tu boca
            A         G           F#7
    sin deseartela de una manera loca
         Bm                 Dm
    Necesito controlar tu vida
           E                       E7
    saber quien te besa, quien te abriga.
    
         Amaj7
    
  • D / Dm / A  F# / D / Dm / E / A / D / E
    
         A
    hace falta que te diga
           C#                       F#m/Em7/A7
    que me muero por tener algo contigo
            D
    Es que no te has dado cuenta
           F#7                         Bm
    de lo mucho que me cuesta ser tu amigo
           D                    Dm
    yo no puedo acercarme a tu boca
            A                    F#7
    sin deseartela de una manera loca
         Bm                 Dm
    Necesito controlar tu vida
          E
    saber   quien te besa, quien te abriga.
    
         A
    
  • símbolos :
    
    ^ = acento	6,8 = ligado entre el 6 y el 8 
    / = slide ascendente \ = slide descendente
    
    
    Guitara 1
    --14-12----10-12,10-9-10-13-----13-12-13,12-12,10-10-10\9
    ------------------------------------------------------------------------
    ------------------------------------------------------------------------
    ------------------------------------------------------------------------
    ------------------------------------------------------------------------
    ------------------------------------------------------------------------
    
    
    
    Guitara 2
    --------3,-2------------------------3,1------------------------0---
    -----------3-------------------------3--------------------------2--
    -----------2-------------------------2--------------------------2--
    -----------0-------------------------0--------------------------2--
    -------------------------------------------------------------0-----
    --------------------------------------------------------------------
    
    
    
    Guitara 1
    ----
  •        C#7                         Cm             C
    e|--0-----------|---------------|--------------|----------------|
    B|----3---------|--1-1s3s1-0-1--|--4--3s4s3-1--|--1-0-----------|
    G|------0-------|---------------|--5-----------|--0-------------|
    D|------2-------|---------------|--5-----------|--2-------------|
    A|------3-------|---------------|--3-----------|--3-------------|
    E|--------------|---------------|--------------|-------3--1-----|
    
                       E              Am
    e|--------------|--0------------|--------------|----------------|
    B|----0-1-0---0-|--0-0s1s0-3-1--|--0s1s0-------|----------------|
    G|--0-------3---|--1------------|--2-----2-----|--2-2/4-2-1-2---|
    D|-0------------|--2------------|--2-----------|----------------|
    A|--------------|--2------------|--------------|----------------|
    E|--------------|---------------|--------------|----------------|
    
           A?
    e|--------------|------------------------------|----------------|
    B|--------1-----|--0s1s0-----------------------|------3----0----|
    G|------0-------|--------2-0---0-2-2s3s2-1-2---|----------------|
    
  • D  Dm  A  F#  D  Dm  E  A  D  E
    
    e/-14-12-----12----------13-(13)-12h13-12-12h10-10/9---8-9-10-9-8-9-14
    B/--------15----15-14-15----------------------------------------------
    G/--------------------------------------------------------------------
    D/--------------------------------------------------------------------
    A/--------------------------------------------------------------------
    E/--------------------------------------------------------------------
    
    e/-------12-10-10/9-999/7--6-7-9-7-6-7--10-9-7-5-4-5-7-8/7-5-(5)-
    B/-14-----------------------------------10-----------------------
    G/-----9--------------------------------10-----------------------
    D/---------------------------------------------------------------
    A/---------------------------------------------------------------
    E/---------------------------------------------------------------
    
    e/---12-9-10h9-------------12-
    B/-------------10-9-7---------
    G/-9------------------10-9----
    D/----------------------------
    
  • +
    ¡Colabora con nosotros!
    Envíanos tu versión de esta canción

Letra de Algo contigo
Hace falta que te diga
que me muero por tener algo contigo
Es que no te has dado cuenta
de lo mucho que me cuesta ser tu amigo
yo no puedo acercarme a tu boca
sin deseartela de una manera loca
Necesito controlar tu vida
saber quien te besa, quien te abriga.
hace falta que te diga
que me muero por tener algo contigo
Es que no te has dado cuenta
de lo mucho que me cuesta ser tu amigo
Ya me quedan muy pocos caminos
aunque pueda parecerte en desatino
no quisiera yo morirme sin tener
algo contigo.
Punteo...
Amaj7/C#7/F#m/Em/A7/D/Em/F#7/Bm
Ya no puedo continuar espiando
dia y noche tu llegar adivinando
Ya no se con que inocente excusa
pasar por tu caaasa.
Me quedan muy pocos caminos
aunque pueda parecerte un desatino
no quisiera yo morirme sin tener
algo contigo
sin tener algo contigo, Sin tener algo contigo.
En el cambio, F#m/Em7 se bajea con la 4ta.cuerda para luego caer en A7.




[Algo contigo chords][Algo contigo cifra]
© LaCuerda.net · aviso legal · privacidad · es · en · pt · contacto