Acordes de Guitarra » A »Andanada 7 » Hijos de puta (Tab)

Hijos de puta
Andanada 7

Letras, Acordes y Tabs para Guitarra, Bajo y Ukulele

  • E||-------------------------|-------------------------|   Introduccion
    B||--3--3b---3---1----------|--3--3b---3---1----------|
    G||-----------------2-------|-----------------2-------|
    D||-------------------------|-------------------------|
    A||-------------------------|-------------------------|
    E||-------------------------|-------------------------|
    
    
      |-------------------------|-------------------------|    Parte 1
      |----------------------4--|--3--1-------------------|
      |--0--2--3--0---2--3------|--------3---2--0---------|
      |-------------------------|-------------------------|
      |-------------------------|-------------------------|
      |-------------------------|-------------------------|
    
    
      |-------------------------|    Parte 2
      |--3--4--3----------------|
      |------------5--3---------|
      |-------------------------|
    
  • +
    ¡Colabora con nosotros!
    Envíanos tu versión de esta canción

Letra de Hijos de puta
Viven en casas de oro y de cristal nada les quita el sueño
Beben tu sangre, tu llanto y tu sudor, que les da nueva vida
Gastan dinero sin preocupacion, nunca se les acaba
Y siempre quieren mas, ellos siempre quieren mas, ¡¡ellos siempre quieren mas!!
¡Hijos de puta!
¡Hijos de puta!
¡Hijos de puta!
¡Hijos de puta!
[Parte 1]
De niño pijo a corbata y calidad,llegan de dos saltos
No hay problema el dinero de papa siempre está a su lado
La policiía cuida su propiedad,todo está preparado
Y siempre quieren mas, ellos siempre quieren mas, ¡¡ellos siempre quieren mas!!
¡Hijos de puta!
¡Hijos de puta!
¡Hijos de puta!
¡Hijos de puta!
¡Hijos de puta!
¡Hijos de puta!
¡Hijos de puta!
¡Hijos de puta!
[Parte 1]




[Hijos de puta chords][Hijos de puta cifra]
© LaCuerda.net · aviso legal · privacidad · es · en · pt · contacto
DINAMICO