Acordes de Guitarra » A »Anabantha » La Flor (Tab)

La Flor
Anabantha

Letras, Acordes y Tabs para Guitarra, Bajo y Ukulele

  • Dm
            Cuando las piedras se fundan
            F 
            Con el calor de tu piel
            C
            Cuando los años te pudran
            E7
            En ti yo viviré
            Dm
            Lo que florezca en tu cuerpo
            F 
            No se podrá marchitar
            C
            Los pétalos son los recuerdos
            E7
            Regados con llanto de libertad
            Am
            El tiempo, los sueños
            F 
            El llanto de libertad...
    
  •        E  S  E  S  E   E   E  E  Q    E.  Q    S
    E||---------12-------------------0----3---1----L-|
    B||---10----------13--12--13--L------------------|
    G||*---------------------------------------------|
    D||*---------------------------------------------|
    A||----------------------------------------------|
    E||------------------------L-------------------L-|
    
    
                   |---3---|
       E  S  E  S  E   E   E  E   E  E   E   E   Q
    --------12-------------------17-----15--13--12----|
    --10----------13--12--13--L-----------------------|
    --------------------------------------------------|
    --------------------------------------------------|
    --------------------------------------------------|
    --------------------------L------------------L----|
    
    
                   |---3---|
    
  • -------12-------------0-0h1-0----12-----------17-15-13-12----
    ----10----13-12-13------------10----13-12-13-----------------
    -------------------------------------------------------------   x3
    -------------------------------------------------------------
    ---0----------------0--------0---------------0---------------
    -------------------------------------------------------------
    
    -------12-------------0-0h1-0----12--------------10-12-10--8-
    ----10----13-12-13------------10----13-12-13----12----12--10-
    -------------------------------------------------------------
    -------------------------------------------------------------
    ---0----------------0--------0----------------0--------------
    -------------------------------------------------------------
    
    
    ---5-
    ---6-
    ---7-  usar este Dm
    ---7-
    ---5-
    
  • +
    ¡Colabora con nosotros!
    Envíanos tu versión de esta canción

Letra de La Flor
Cuando las piedras se fundan
Con el calor de tu piel
Cuando los años te pudran
En ti yo viviré
Lo que florezca en tu cuerpo
No se podrá marchitar
Los pétalos son los recuerdos
Regados con llanto de libertad
El tiempo, los sueños
El llanto de libertad...
El viento se lleva
Las alas del miedo




[La Flor chords][La Flor cifra]
© LaCuerda.net · aviso legal · privacidad · es · en · pt · contacto