Acordes de Guitarra » A »Anabantha » Espasmos de veneno (Tab)

Espasmos de veneno
Anabantha

Letras, Acordes y Tabs para Guitarra, Bajo y Ukulele

  •      E   E   E   E   E   E   S E.      E   E   E   E   E   E   S E.
    |----------------------------------|---------------------------------|
    |----------------------------------|---------------------------------|
    |*--14--15--12--14-----------------|--14--15--12--14-----------------|
    |*------------------15--14--15-----|------------------15--14--15-----|
    |----------------------------------|---------------------------------|
    |----------------------------------|---------------------------------|
    
    
       ^       ^       ^
       E   E   E   E   E   E   S E.      E   E   E   E   E   E   E   E
    ---------------------------------|----------------------------------|
    ---------------------------------|--13--11--------------------------|
    --14--15--12--14-----------------|----------14--12--14--15--14------|
    ------------------15--14--15-----|------------------------------15--|
    ---------------------------------|----------------------------------|
    ---------------------------------|----------------------------------|
    
    
       ^       ^       ^                 ^       ^       ^
    
  • +
    ¡Colabora con nosotros!
    Envíanos tu versión de esta canción

Letra de Espasmos de veneno
^ ^ ^
^ ^ ^ ^ ^ ^
^ ^ ^
ACOMPAÑAMIENTO ARMONICOS
H H H H H H
H H W H H
H H H H H H
W H. Q Q H.
H S S S S S S S S H. Q
Q H Q H H H. Q
Q Q Q Q
T T T T
S S S S S S S S S S S S S S S S
T T T T
S S S S S S S S S S S S S S S S
T T T T
S S S S S S S S S S S S S S S S
T T T T EN ESTA PARTE LA VOS
S S S S S S S S S S S S S S S S W HACE LO DEL INTRO
PM PM PM PM PM PM PM PM PM PM PM PM PM
AQUI EMPIESA A CANTAR OTRA VEZ
H H H H H H
H H W H H
H H H H H H
<
W W W
< < < < <
W H H 3x H H
Q Q H W
PARTE FINA QUE EMPIEZA EL VIENTO SE LLEVO....
PM PM PM PM PM PM PM PM PM PM PM PM PM PM PM PM
S S S S S S S S S S S S S S S S
PM PM PM PM PM PM PM PM PM PM PM PM PM PM PM PM
S S S S S S S S S S S S S S S S
PM PM PM PM PM PM PM PM PM PM PM PM PM PM PM PM
S S S S S S S S S S S S S S S S
PM PM PM PM PM PM PM PM PM PM PM PM PM PM PM PM
S S S S S S S S S S S S S S S S




[Espasmos de veneno chords][Espasmos de veneno cifra]
© LaCuerda.net · aviso legal · privacidad · es · en · pt · contacto