Acordes de Guitarra » A »Américo » Traicionera (Tab)

Traicionera
Américo

Letras, Acordes y Tabs para Guitarra, Bajo y Ukulele

  •  Bm
    Siento que te quiero,
                                           Em
     de tal manera que me vuelvo loco cuando tu te vas
                   G                              F#
    Siento que te amo, de tal manera que me falta todo cuando tu no estas
              Bm
    Todo fue bonito al comienzo, tu belleza, tus palabras,
         Em
    tus caricias llenas de pasión
                 G                             F#
    Todo era mentira que yo era el único, con otro compartías tu amor.
    
    CORO:
    
      Bm                    Em                                           Bm
    Traicionera, Hay traicionera porque razón te amo como un loco traicionera
                                                Em
    Tu amor como veneno corre en mi sangre, traicionera
          G                                                   F#
    
  • Intro: C#m F#m A G#////
    
                   C#m                                F#m
    Siento que te quiero, de tal manera que me vuelvo loco cuando tu te vas
                   A                               G#
    Siento que te amo, de tal manera que me falta todo cuando tu no estas
              C#m
    Todo fue bonito al comienzo, tu belleza, tus palabras,
         F#m
    tus caricias llenas de pasión
                 A                             G#
    Todo era mentira que yo era el único, con otro compartías tu amor.
    
    CORO:
    
      C#m                   F#m                                          C#m
    Traicionera, Hay traicionera porque razón te amo como un loco traicionera
                                                F#m
    Tu amor como veneno corre en mi sangre, traicionera
          A                                                   G#
    
  • B:-----------5h7---5---5---5---5---7---7----I
    G:---------6-----6---6---6---6---6---6---6--I
    D:---/666-----------------------------------I
    A:------------------------------------------I
    E:------------------------------------------I
    
    e:------------------------------------------I
    B:-----------5h7---5---5---5---5---4---4----I
    G:---------6-----6---6---6---6---5---5---5--I
    D:---/777-----------------------------------I
    A:------------------------------------------I
    E:------------------------------------------I
    
    e:-------------12h14-----12---12---12---12---14---14----I
    b:---------14---------14---14---14---14---14---14---14--I
    g:/131313-----------------------------------------------I
    d:------------------------------------------------------I
    a:------------------------------------------------------I
    e:------------------------------------------------------I
    
    
  • +
    ¡Colabora con nosotros!
    Envíanos tu versión de esta canción

Letra de Traicionera
Siento que te quiero,
de tal manera que me vuelvo loco cuando tu te vas
Siento que te amo, de tal manera que me falta todo cuando tu no estas
Todo fue bonito al comienzo, tu belleza, tus palabras,
tus caricias llenas de pasión
Todo era mentira que yo era el único, con otro compartías tu amor.
Traicionera, Hay traicionera porque razón te amo como un loco traicionera
Tu amor como veneno corre en mi sangre, traicionera
Mas sufro, que te extraño, que te llame y que te busque, traicionera.
Hay traicionera, mi orgullo cuantas veces se ha caído traicionera
Quisiera no quererte, ya no quiero amarte, traicionera
No puedo arrancarme tu cariño, aunque yo quiera, traiciooonera




[Traicionera chords][Traicionera cifra]
© LaCuerda.net · aviso legal · privacidad · es · en · pt · contacto