Tablatura de Amen: Libre
Amen  corregir
desconocido
Solo 1:
D|--0-3-2-0---------------------2--------|
A|-----------3-2-0-2-3------2-3---5-3-2--|
E|----------------------3-5--------------|

D|-----------------------------------------------|
A|--------------5-7-----5-7-8---5-7-8-9-10-11-12-|
E|--5-3---5-7-8-----5-8-------5------------------|


e-------15-----------22b24-22-20----------------------20]
B-15b17---15b13-22b24-----------22-20-----22-----20b22--20b18----20-]
G------------------------------------21b23--21b19------------19b21-19b17-1514]

Lo de la 3ra cuerda va despues del 20vo traste de la segunda cuerda
Si lo tocan en una guitarra acústica ya saben que a partir
del 12 avo traste son
las mismas notas, si le faltan trastes lo tocan
en la octava mas grave (del 12 avo para la
izquierda)
Este fichero es trabajo propio de su transcriptor y representa su interpretación personal de la canción. El material contenido en esta página es
para exclusivo uso privado, por lo que se prohibe su reproducción o retransmisión, así como su uso para fines comerciales.
© LaCuerda.net · aviso legal · privacidad · contacto