Acordes de Guitarra » A »Alta Consigna » No te pido mucho (Tab)

No te pido mucho
Alta Consigna

Letras, Acordes y Tabs para Guitarra, Bajo y Ukulele

  •  C
    Nunca me paso a mi por la mente
                 Am
    que de esos labios te saldría un no te quiero
      F                       Dm
    y es que me tenias hipnotizado
             G
    con tu cuerpo tan perfecto
    
     Am
    De la nada llego tu mensaje
            G
    que ya nunca volveríamos a vernos
     F                        Dm
    de tu corazón yo había salido
              G                          G7
    y que habían cambiado de dueño tus besos
    
                   C
    Si tu te me mirabas, tan enamorada
    
  • C G F G C
    
    C
    Nunca me pasó a mi por la mente
                Am                              G
    que de esos labios saldría un no te quiero...
      F
    y es que me tenías hipnotizado
           G
    con tu cuerpo tan perfecto...
    
    Am
    De la nada llegó tu mensaje
           G
    que ya nunca volveríamos a vernos,
    F                        Dm
    de tu corazón yo había salido
          G
    y que habían cambiado de dueño tus besos...
    
    
  • E|---------------3--3/5--3-3-3--
    B|---------------5--5/6--5-5-5--
    G|--0-0-0--0--0-----------------
    D|------------------------------
    A|------------------------------
    E|------------------------------
    
    E|--3--/5----5------5------5------5------5--
    B|--5--/6--6---5--6---5--6---5--6---5--6----
    G|------------------------------------------
    D|------------------------------------------
    A|------------------------------------------
    E|------------------------------------------
    
    E|--7--7--1--1--1-------7-----5-------------7--7--
    B|--8--8--3--3--3------------------------6-----6--
    G|-----------------5/7-----5-----4--5/7--------7--
    D|------------------------------------------------
    A|------------------------------------------------
    E|------------------------------------------------
    
  • +
    ¡Colabora con nosotros!
    Envíanos tu versión de esta canción

Letra de No te pido mucho
Nunca me paso a mi por la mente
que de esos labios te saldría un no te quiero
y es que me tenias hipnotizado
con tu cuerpo tan perfecto
De la nada llego tu mensaje
que ya nunca volveríamos a vernos
de tu corazón yo había salido
y que habían cambiado de dueño tus besos
Si tu te me mirabas, tan enamorada
cuando caminabas junto a mi
cuando me llamabas, en la madrugada
cada vez que no podías dormir
Si a mi me jurabas, que era amor del bueno
y que a lo nuestro no llegaría fin
cortaste mis alas y caí hasta el fondo
y que de aquí no he podido salir
No te pido mucho
solamente quiero
que regreses junto a mi




[No te pido mucho chords][No te pido mucho cifra]
© LaCuerda.net · aviso legal · privacidad · es · en · pt · contacto