Tablatura para Guitarra de Alta Consigna: No te pido mucho
Conexión · Inscripción
Letras y Acordes
Pantalla Completa
Imprimir
Versión Texto
Añadir Favorito
Otras Versiones

Mostrar Diagramas
Desfile Automático
Manipular Acordes
Formato del Texto


No te pido mucho(TAB)

Alta Consigna

calidad:
altc0182
AUTOR: Hector Guerrero
ALBUM: desconocido
Enviado por Carlos
E|---------------3--3/5--3-3-3--
B|---------------5--5/6--5-5-5--
G|--0-0-0--0--0-----------------
D|------------------------------
A|------------------------------
E|------------------------------

E|--3--/5----5------5------5------5------5--
B|--5--/6--6---5--6---5--6---5--6---5--6----
G|------------------------------------------
D|------------------------------------------
A|------------------------------------------
E|------------------------------------------

E|--7--7--1--1--1-------7-----5-------------7--7--
B|--8--8--3--3--3------------------------6-----6--
G|-----------------5/7-----5-----4--5/7--------7--
D|------------------------------------------------
A|------------------------------------------------
E|------------------------------------------------

E|----------------------13-----12-12-12--
B|------------12-13-14--15-----13-13-13--
G|--12-13-14-----------------------------
D|---------------------------------------
A|---------------------------------------
E|---------------------------------------

E|---------15------15------14--13--13--
B|--13/17------17------16------15--15--
G|-------------------------------------
D|-------------------------------------
A|-------------------------------------
E|-------------------------------------

E|--17-17-----17----15----13--12--15p12-----------------
B|--18-18--18----17----15-----13---------13-------------
G|------------------------------------------14--13--12--
D|------------------------------------------------------
A|------------------------------------------------------
E|------------------------------------------------------

E|--15------------------------------------------------------
B|-------13-------------------------------------------------
G|----------14--13--12--------------------------------------
D|---------------------------10-------10--------------------
A|----------------------10h12---12-11----11-10--------------
E|----------------------------------------------12-11-10-8--
Este fichero es trabajo propio de su transcriptor y representa su interpretación personal de la canción. El material contenido en esta página es
para exclusivo uso privado, por lo que se prohibe su reproducción o retransmisión, así como su uso para fines comerciales.

© LaCuerda.net · Aviso Legal · Privacidad