Acordes de Guitarra » A »Alfredo Zitarrosa » Pa'l que se va (Tab)

Pa'l que se va
Alfredo Zitarrosa

Letras, Acordes y Tabs para Guitarra, Bajo y Ukulele

  • Intro:DO SOL7
    
    DO                 SOL7
    No te olvidés del pago
                        DO
    si te vas pa la ciudad
                        SOL7
    cuanti mas lejos te vayas
                          DO
    mas te tenes que acordar
    DO7                        FA
    cierto es que hay muchas cosas
              SOL7     DO
    que se pueden olvidar
                        SOL7
    pero algunas son olvidos
                         DO
    y otras son cosas nomás.
    
    DO SOL7 x2
    
  • Intro:DO SOL7
    
    DO                 SOL7
    No te olvidés del pago
                        DO
    si te vas pa la ciudad
                        SOL7
    cuanti mas lejos te vayas
    FA      DO   SOL7    DO
    mas te tenes que acordar
    DO                         FA
    cierto es que hay muchas cosas
                       DO
    que se pueden olvidar
                        SOL7
    pero algunas son olvidos
      FA    DO    SOL7  DO
    y otras son cosas nomás.
    DO SOL7 x2
    No heches en la maleta
    
  • Hola a todos, esta es mi primer tablatura, y espero que les guste
    es facil y ademas suena muy bien, escuchen la cancion y la sacan a l tique
    Aguante Uruguay.
    
    PA`L QUE SE VA - ZITARROSA
    
    INTRO
    E----------0-------------------------------------------------------------------1----0---------]
    B----1--------3-1----------3------1-----0-----1------------------------------------------3-1--]
    G--0-----0--------2-0----0------0-----0-----0------0-2--------0-2-0----------0----0-----0-----]
    D------2---------------3------3-----3-----3------3----2-0---3--------20-----------------------]
    A-----------------------------------------------------------------------3--2-----2-----2------]
    E---------------------------------------------------------------------------------------------]
    
    ESTROFA
    E------------------------------------------------------------------------------]
    B---------------------------1--------------------------------------------------]
    G------00---22-00---------0---0------0-0---
  • +
    ¡Colabora con nosotros!
    Envíanos tu versión de esta canción

Letra de Pa'l que se va
No te olvidés del pago
si te vas pa la ciudad
cuanti mas lejos te vayas
mas te tenes que acordar
cierto es que hay muchas cosas
que se pueden olvidar
pero algunas son olvidos
y otras son cosas nomás.
No heches en la maleta
lo que no vayas a usar
son mas largos los caminos
pal que va cargao de más.
Aura que sos mocito
y ya pitás como el que más
no cambiés nunca de trillo
aunque no tengas pa fumar.
Y si sentís tristeza
cuando mires para atrás
no te olvides que el camino
es pal que viene y pal que va.
No te olvidés del pago
si te vas pa la ciudad
cuanti mas lejos te vayas
más te tenés que acordar.
*********************************************************************
(Ahora si está 100% correcta)
Corregida por Agustin Perdomo (agux_015)
agustin_9314@hotmail.com




[Pa'l que se va chords][Pa'l que se va cifra]
© LaCuerda.net · aviso legal · privacidad · es · en · pt · contacto