Acordes de Guitarra » A »Alexandre Pires » Maldito el Tiempo (Tab)

Maldito el Tiempo
Alexandre Pires

Letras, Acordes y Tabs para Guitarra, Bajo y Ukulele

  • Intro: A E D       /  Bm A E   /    A E D        /   Bm A E
    
    A                            E
    Besar esa boca es toda una aventura
    A                               E
    Donde hago piruetas y empiezo a caer
    A                               E
    Besar esa boca no tiene clemencia
    A                             E
    Por eso besarte es jugar y perder
    Bm           A              E
    Por eso comprendes que te necesito
    Bm         A                  E
    Por eso besarte es morir y volver
    
    A                           E
    Caer derrotado en tu boca me gusta
    A                            E
    Quedarme vencido y dormido en tu piel
    Bm         A                   E
    
  • MALDITO EL TIEMPO PUNTEO
    
    e--------------------|---------------------------------------|
    B------------9-----9-|----6----------------11------11--------|
    G---------6~----5----|-------8-7h8/5~--8~--------------------|
    D-----6-8------------|-8-----------------------11------10~/0-|
    A—4/8----------------|---------------------------------------|
    E--------------------|---------------------------------------|
    
    e---------------16------16------|
    B----------14~------13----------|
    G-13-13-15------------------15--|
    D-------------------------------|
    A-------------------------------|
    E-------------------------------|
    
    e----------------------------16-18b—16-18-19b-|
    B18--16-15h16/14~--16~-18/19------------------|
    G---------------------------------------------|
    D---------------------------------------------|
    A---------------------------------------------|
    E---------------------------------------------|
    
    Este punteo pertenece a una excelente canción,
    la cual me trae muchos recuerdos, espero les guste
  • +
    ¡Colabora con nosotros!
    Envíanos tu versión de esta canción

Letra de Maldito el Tiempo
Besar esa boca es toda una aventura
Donde hago piruetas y empiezo a caer
Besar esa boca no tiene clemencia
Por eso besarte es jugar y perder
Por eso comprendes que te necesito
Por eso besarte es morir y volver
Caer derrotado en tu boca me gusta
Quedarme vencido y dormido en tu piel
Besar esa boca se ha vuelto locura
Por eso mi amor no te quiero perder
(estribillo)
Maldito el tiempo que se acaba cuando estoy contigo
Maldito, maldito el tiempo que tu no estas
Maldito el tiempo que se esfuma cuando te preciso
Y bendita que seas mi necesidad
Y bendita que seas mi necesidad
Besarte mi vida es andar por los cielos
Es no hacer preguntas ni saber por que
Besarte esa boca es dolor y remedio
Besar esa boca es ahora y después
Por eso eres tu donde me desahogo
Por eso besarte es morir y volver
ESTRIBILLO
Por eso besarte es si simplemente todo
Es mas allá del bien
Por eso besarte es morir y volver
ESTRIBILLO x2




[Maldito el Tiempo chords][Maldito el Tiempo cifra]
© LaCuerda.net · aviso legal · privacidad · es · en · pt · contacto