Acordes de Guitarra » A »Alex Campos » Por escuchar tu voz (Tab)

Por escuchar tu voz
Alex Campos

  • Letra y Acordes
    Intro: //G - C/E - C - G//
    
    G                  C/E
    Cerca a ti quiero estar
               C               G
    Cuando el día empiece a brillar
    G               C/E
    Cuando voy al lugar
          C            G
    Donde tu mirada encontré.
    
    (Intro)
    
    G              C/E
    Aquí estoy otra vez
          C               G
    Como aquella primera vez
                  C/E
    Nada soy sabes bien
             C               G
    
  • Tablatura
      G      C     C     G
    e:-----------------------------|
    B:10-7-8------8-----8----8-----|
    G:----------7-----7----7-------| (x2)
    D:-------10----10----9---------|
    A:-----------------------------|
    E:-----------------------------|
    
    2da parte
    
    Aquí estoy...
      G      C      C     G
    e:------------7-----8---------|
    B:10-7-8----------8-------7---|
    G:----------7---7-------7-----|
    D:-------10-----------9-------| (x2)
    A:----------------------------|
    E:----------------------------|
    
    
    
  • +
    ¡Colabora con nosotros!
    Envíanos tu versión de esta canción

Letra de Por escuchar tu voz
Cerca a ti quiero estar
Cuando el día empiece a brillar
Cuando voy al lugar
Donde tu mirada encontré.
Aquí estoy otra vez
Como aquella primera vez
Nada soy sabes bien
En ti encuentro todo mi bien.
Vuelvo a ti como ayer Tu mirada deseo ver
Eres tu mi soñar Tu presencia en mi vivir.
Eres Dios siempre Eterno
Doy todos mis sueños hoy
por ser tu amigo Dios
Quiero siempre adorarte
Rindo todo lo que soy por escuchar tu voz.
Te anhelo, deseo mi eterno Dios
por siempre me entrego a tu amor
Te anhelo, deseo mi eterno Dios
por siempre me entrego a tu amor
//Eres Dios siempre Eterno
Doy todos mis sueños
Hoy por ser tu amigo Dios
Quiero siempre adorarte
Rindo todo lo que soy por escuchar tu voz//
Muero yo por escuchar tu voz.



© LaCuerda.net · aviso legal · privacidad · contacto
DINAMICO