Acordes de Guitarra » A »Alex Campos » Este muerto no llevo más (Tab)

Este muerto no llevo más
Alex Campos

Letras, Acordes y Tabs para Guitarra, Bajo y Ukulele

  • Intro: Gm Bb F
    
    
    Guitarra 2 con Delay
    G--------------------------------------------------------------------
    D----12-12----12-12----15-15----15-15---10-10---10-10---10-10---10-10
    A-10-------10-------13-------13-------8-------8-------8-------8------
    E--------------------------------------------------------------------
    
    Guitarra 1
    
    E----------------------
    B-6s8-6----------------
    G-------5s7-5----------
    D-------------8-7-5-5--
    -------------------8---
    
    Gm
     Tengo alas pa’ este vuelo
    
    
  • Intro: Gm Bb F
    
    
    Guitarra 2 intro
    
    E-----------------------------
    B---------------------------------
    G--10s12-10-------------10-------------
    D------------10s12-10--------10---------------
    A---------------------------------12-12s-13-12-10-8-10----
    
    Gm
     Tengo alas pa’ este vuelo
    
     Tú me animas a volar
    F
     Me encamino para el cielo
    
     Paso a paso voy a llegar
    Gm
    
  • +
    ¡Colabora con nosotros!
    Envíanos tu versión de esta canción

Letra de Este muerto no llevo más
Guitarra 2 con Delay
Guitarra 1
Tengo alas pa’ este vuelo
Tú me animas a volar
Me encamino para el cielo
Paso a paso voy a llegar
Sé que angosto es el camino
Muchas cosas vo’a dejar
Me basta estar contigo lo demás no quiero
Ya no quiero, oye ya no quiero estar dormido
Ya no quiero muerte, ya no quiero ese camino
Ya no quiero llanto, ni tristeza, ni olvido
De ese viejo hombre solo quedan sus latidos
Estas fuerzas no me dan
No creo poder llegar
Pero si conmigo estas
Seguro voy a llegar
Reconozco que soy débil yo no quiero fracasar
Es por eso que me rindo a tu amor y tu verdad
Este amor es el que quiero cada día más y mas
Ya no quiero, oye ya no quiero estar dormido
Ya no quiero muerte, ya no quiero ese camino
Ya no quiero llanto, ni tristeza, ni olvido
De ese viejo hombre solo quedan sus latidos
Estas fuerzas no me dan
No creo poder llegar
Pero si conmigo estas
Seguro voy a llegar
El pasado queda atrás,
Este muerto no llevo más
Me entrego entero a tu verdad,
Me rindo por siempre a tu amar…
Estas fuerzas no me dan
No creo poder llegar
El pasado queda atrás,
Este muerto no llevo mas
cualquier duda mi correo: hershy432@hotmail.com
esperen el video en youtube, usuario: jerzys123




[Este muerto no llevo más chords][Este muerto no llevo más cifra]
© LaCuerda.net · aviso legal · privacidad · es · en · pt · contacto
DINAMICO