Tablatura para Bajo de Alex Campos: Cuidaré de tí
Conexión · Inscripción
Letras y Acordes
Pantalla Completa
Imprimir
Versión Texto
Añadir Favorito
Otras Versiones

Mostrar Diagramas
Desfile Automático
Formato del Texto


Cuidaré de tí(BAJ)

Alex Campos

calidad:
acam0605
AUTOR: Alex Campos
ALBUM: Cuidare de tí (2008)
Enviado por andres
PRE-CORO
G-------------------------------
D------------------------------
A-----------------------------
E---2--4--2--4-2--------------



G-------------------------------
D------------------------------
A-----------6--4----------------
E--4-2-1-------------------------


CORO

G------------------------------------------------
D--------------------------------------------------
A-------------------4-4-4-4-4-4-4-4---------------x4
E---4-4-4-4-4-4-4-4-----------------------------

G-------------------------------
D------------------------------
A--444444-6666-8888----------444444-6666-88888----------
E--------------------4444444----



VERSE 2

G-------------------------------
D------------------------------
A-----8-----------------------
E--9-----6--------------------

G-12----12--------------------------
D----10----10----------------
A--------------4h6-----6-----8----8----
E-------------------4-----4----6-----6--

G-----------------------------
D-11---11----13----13--------X2
A----9----9-----11-----11----
E----------------------------

PRE-CORO
G-------------------------------
D------------------------------
A-----------6--4----------------
E--4-2-1-------------------------

CORO

G------------------------------------------------
D--------------------------------------------------
A-------------------4-4-4-4-4-4-4-4---------------x4
E---4-4-4-4-4-4-4-4-----------------------------

G-------------------------------
D------------------------------
A--444444-6666-8888----------444444-6666-88888----------
E--------------------4444444----

PRE.CORO
G----------------------------------
D-----------3----3---------------6----6----
A-1---4-------1----1--4----4-------4-----4--6---6----
E---2---4---------------2-----2---------------4----4-

AHORA ES EL SOLO DE BATERIA CON LA VOZ
Y DESPUES
G---------------------
D---------------------
A----------------------
E--12/2-----------------

FINAL

CORO

G------------------------------------------------
D--------------------------------------------------
A-------------------4-4-4-4-4-4-4-4-----------------
E--4-4-4-4-4-4-4-4--------------------4-4-4-4-4-4-4-4

G-------------------------------
D------------------------------
A--444444-6666-8888----------444444-6666-88888----------
E--------------------4444444----


durante toda la cancion
alguna duda siganme en mi face
http://www.facebook.com/pages/Andrez-Chale/191790777567241
Este fichero es trabajo propio de su transcriptor y representa su interpretación personal de la canción. El material contenido en esta página es
para exclusivo uso privado, por lo que se prohibe su reproducción o retransmisión, así como su uso para fines comerciales.

© LaCuerda.net · Aviso Legal · Privacidad