Acordes de Guitarra » A »Alex bueno » Corazón de madera (Tab)

Corazón de madera
Alex bueno

Letras, Acordes y Tabs para Guitarra, Bajo y Ukulele

  • F  Bb   F  Bb   F  Bb  Cm  D#
    
    INTRO 2
    
    Saxofón
    
       Bb     Cm  Bb      Bb     F   Cm      Cm     Gm  Cm
    
    E ------------------------------1---------------------------
    B -3--1-3--3-1-3------3--1-3--3---4------4--3-4--4-3-4------
    G ----------------------------------------------------------
    D ----------------------------------------------------------
    A ----------------------------------------------------------
    e ----------------------------------------------------------
    
      Cm            D# Bb D# Bb F
    
    E --------------------------1-
    B 4--3-4--4-3-4--4-3--4-3-----
    G ----------------------------
    
  • +
    ¡Colabora con nosotros!
    Envíanos tu versión de esta canción

Letra de Corazón de madera
Saxofón
VERSO
Corazon de madera
que por la noche duerme
y corazon de madera
que solo piensa en verte
Corazon de madera
que late para adorarte
corazon de madera
que solo quiere amarte
Corazón, Corazón
Corazón, Corazón
Corazón, Corazón
Corazón, Corazón
Te quiero
Corazón, Corazón
Corazón, Corazón
Corazón, Corazón
Corazón, Corazón
VERSO
Mi Corazon de madera
que no le importa quemarse
corazon de madera
que nunca podrá olvidarte
Comprenderas cuando vuelvas
que no debistes cambiarte
Mi corazón de madera
por otro amor... (por otro amor)
por otro amor.. .(por otro amor)
por otro amooooor..
Corazón, Corazón
Corazón, Corazón
Corazón, Corazón
Corazón, Corazón
Corazón, Corazón
Corazón, Corazón
Corazón, Corazón
Corazón, Corazón
Saxofón
Corazón, Corazón Morenaaa...
Corazón, Corazón Queridaaa..
Corazón, Corazón Te esperoo..
Corazón, Corazón Amada míaaa..
Corazón, Corazón Me mueroo..
Corazón, Corazón Te quieroo..
Corazón, Corazón Te sueñooo..
Corazón, Corazón y te deseoo..
Corazón, Corazón Morenaaa...
Corazón, Corazón Queridaaa..
Corazón, Corazón Te esperoo..
Corazón, Corazón Amada míaaa..
Corazón, Corazón Me mueroo..
Corazón, Corazón Te quieroo..
Corazón, Corazón Te sueñooo..
Corazón, Corazón y te deseoo..
hasta el final.....
ACORDES UTILIZADOS
e A D G B E

Video de Corazón de madera
[]




[Corazón de madera chords][Corazón de madera cifra]
© LaCuerda.net · aviso legal · privacidad · es · en · pt · contacto