Acordes de Guitarra » A »Alejandro Filio » Un sitio para el amor (Tab)

Un sitio para el amor
Alejandro Filio

  • Letra y Acordes
    C       Dm*      Em       F
    Bajo la noche buscando la luz
         C       Dm*   G
    y el sitio para llegar
    C       Dm*     Em        F
    si me conoces sabrás solo tú
       C         G   C
    mi sueño, mi soledad.
    
     (II)
    Am        Em      C        G
    Por la ventana la luna nos besa
        Am          Em     F
    y empieza una historia más
           C        Dm*   Em         F
    no hay nada que no se pueda alcanzar
       C            G    C
    si siempre a mi lado vas.
    
     (II)
    
  • Tablatura
        D        G                  D       G      A
    E------------3-----3-3-3-----------------3----------------|
    A----------------------------------------------0----------|
    D---0----------0----------0-----0-------------------------|
    G---------------0----------0--------------0------2--2--2--|
    B---3------3-----3--3-3-3---3----------3---3---3--2--0----|
    e---2-0h2h0--3-----3-2-0----------2-2h0--3----------------|
    
        D         G              D9/F#   G
    E-------------3---3--3--3----2-------3--3-----|
    A---------------------------------------------|
    D---0-------------------------0--0-------0----|
    G--------------0---------------2--2---0-------|
    B----3------3---3--3--3--3------3-------3-3---|
    e---2--0h2h0--3---3--2--0---------------------|
    
    
     ACORDES
        654321
    D   000232
    
  • +
    ¡Colabora con nosotros!
    Envíanos tu versión de esta canción

Letra de Un sitio para el amor
Bajo la noche buscando la luz
y el sitio para llegar
si me conoces sabrás solo tú
mi sueño, mi soledad.
(II)
Por la ventana la luna nos besa
y empieza una historia más
no hay nada que no se pueda alcanzar
si siempre a mi lado vas.
(II)
Por la ventana la luna nos besa...
Bajo el mismo techo estamos
con el mismo corazón
bajo el mismo techo andando
un sitio para el amor
un sitio para el amor.
6 1
/ 7
/_(
|_| CUALQUIER COMENTARIO A MI CORREO.
|_|
|_|
|_| /\
/\|=|/ /
\ |_| /
) _ \
/ |_| \
/ -=-o /
\ /~\_/
\/



© LaCuerda.net · aviso legal · privacidad · contacto
DINAMICO